Oops, an error
Loading. Please wait.

Falling To Pieces Tab

version 2
version 2

Whole song

Interactive

8,668 views 3 this week
1 commentread comment
1 2 3 4 5
please rate
add to favorites
launch autoscroll
font size
0
reset
how to read this tab
guitar tuner
Autoscroll
slow
fast
+/-
esc
set tempo
stop
Help us to improve Ultimate-Guitar.com Take our survey!
×
Author
Difficulty
Tuning
intermediate
D G C F A D
Song: Falling To Pieces
Artist: Firewind
Album: Allegiance (2005)

Tuning: D Standard (DGCFAD)

Intro(x2):
d|-0--0--0--0--0--0--0-0-0-0-0-0-0-0-0-0-0-0-0-0-0-0-0-0-0-0-0-0-0-0-0-0--|
A|-12-12-12-10-10-12-8-8-8-7-7-7-8-8-7-7-3-3-3-3-3-5-1-1-1-1-1-1-1-1-3-3--|
F|------------------------------------------------------------------------|
C|------------------------------------------------------------------------|
G|------------------------------------------------------------------------|
D|------------------------------------------------------------------------|

d|-0--0--0--0--0--0--0-0-0-0-0-0-0-0-0-0-|
A|-12-12-12-10-10-12-8-8-8-7-7-7-8-8-7-8-|
F|---------------------------------------|
C|---------------------------------------|
G|---------------------------------------|
D|---------------------------------------| Cont'd below

d|-0--0--0--0--0--0--0--0--0--0--0--0--0-0-0--0--|
A|-13-13-13-13-13-12-10-10-10-10-10-12-8-8-10-10-|
F|-----------------------------------------------|
C|-----------------------------------------------|
G|-----------------------------------------------|
D|-----------------------------------------------|

Pre-Verse (Keyboard fill):
d|----------------------------|
A|----------------------------|
F|----------------------------|
C|--xx------------------------|
G|--xx------------------------|
D|--xx-15/--------------------|

Verse(X2):
d|-----------------------------------------------|
A|-----------------------------------------------|
F|-----------------------------------------------|
C|---9---5---7-----------------------------------|
G|---------------7-------------------------------|
D|-0---0---0---0---0-0-0-0-0-0-0-0---------------|
   .   .   .   .   . . . . . . . .

d|-----------------------------------------------|
A|-----------------------------------------------|
F|---------------5-----5/7-7---------------------|
C|---10---7---9--5-----5/7-7---------------------|
G|-0----0---0----3-----3/5-5---------------------|
D|-----------------------------------------------|
   .    .   .
d|-----------------------------------------------|
A|-----------------------------------------------|
F|-----------------------------------------------|
C|---9---5---7-----------------------------------|
G|---------------7-------------------------------|
D|-0---0---0---0---0-0-0-0-0-0-0-0---------------|
   .   .   .   .   . . . . . . . .

d|-----------------------------------------------|
A|-----------------------------------------------|
F|-----------------------------------------------|
C|---10---7---9--5-----5/4-----------------------|
G|-0----0---0----5-----5/4-----------------------|
D|---------------3---3-3/2-----------------------|
   .    .   .
Pre-Chorus:
d|-----------------------------------------------|
A|-----------------------------------------------|
F|-----------------------------------------------|
C|-----6-------------6---------------------------|
G|-------9---7---------6--6-7-6------------------|
D|--9-------------7-------------7----------------|

d|-----------------------------------------------|
A|-----------------------------------------------|
F|-----------------------------------------------|
C|-----6----------9999999966666-7~---------------|
G|-------9---7----9999999966666-7~---------------|
D|--9-------------7777777744444-5~---------------|

Chorus(x2):
d|-----------------------------------------------|
A|-----------------------------------------------|
F|--9---------777777-5555555555-77---------------|
C|--9-(Strum)-777777-5555555555-77---------------|
G|--7---------555555-3333333333-55---------------|
D|-----------------------------------------------|
d|-----------------------------------------------|
A|-----------------------------------------------|
F|--9--------------------------------------------|
C|--9-(Strum)-777777-5555555-4~------------------|
G|--7---------777777-3333333-4~------------------|
D|------------555555-3333333-2~------------------|

Verse(X2)

Pre-Chorus

Chorus

THIS TAB IS NOT YET FINISHED. i don't have time to finish it right now, but i will 
it in the next couple days, solo and all.
Suggest correction
Give kudos to tab author, rate the tab!
1 2 3 4 5
comments
print report bad tab
1 comment total.
0 reply
mrdrmegna 54 wrote on October 5 2008, 07:39 pm

great song
i know the solo if you want me to tab it out
I wouldn't mind if you used it

guest
You may want to rate the tab now too:
select rating
Wanna post a correction for this tab? Suggest correction