Oops, an error
Loading. Please wait.

Falling To Pieces Tab

version 3
version 3

Whole song

Interactive

882 views 3 this week
no commentswrite comment
1 2 3 4 5
please rate
add to favorites
launch autoscroll
font size
0
reset
how to read this tab
guitar tuner
Tab Pro tools
  • play this tab
  • loop segment
  • change instrument
  • show fretboard
  • metronome
×
Best way to learn
"Falling To Pieces"
Autoscroll
slow
fast
+/-
esc
set tempo
stop
Difficulty
novice
Tabbed by c0nn0r
email : revolverboy22@yahoo.co.uk
song version

intro
E/--------------------------------------------------------------------------|
B/--10-10-10----------------------------------------------------------------|
G/-----------12-12-12-10-10-10--9--9--9-10-10--9--9-5-5-5-3-3-3-3-3-3-3-3-3-|
D/--12-12-12-12-12-12-12-12-12-12-12-12-12-12-12-12-7-7-7-5-5-5-5-5-5-5-5-5-|
A/--------------------------------------------------------------------------|
E/--------------------------------------------------------------------------|

E/--------------------------------------------------------------------------|
B/---------10-10-10---------------------------------------------------------|
G/-5-2-5-2-------12-12-12-10-10-10--9--9--9-10-10--9--9---------------------|
D/-5-5-5-5-12-12-12-12-12-12-12-12-12-12-12-12-12-12-12--5-5-3--------------|
A/-------------------------------------------------------3-3-1----1-0-------|
E/-------------------------------------------------------3-3-1-------3-1-0--|

Pre verse and Chorus
E/--------------------------------------------------------------------------|
B/--------------------------------------------------------------------------|
G/7-7-7-7-7-7-7-7-7-7-7-7-7-7-7-7-5-5-5-5-5-5-3-3-3-3-3-3-3-3-3-3-3-3-------|
D/7-7-7-7-7-7-7-7-7-7-7-7-7-7-7-7-5-5-5-5-5-5-3-3-3-3-3-3-3-3-3-3-3-3-------|
A/5-5-5-5-5-5-5-5-5-5-5-5-5-5-5-5-3-3-3-3-3-3-1-1-1-1-1-1-1-1-1-1-1-1-------|
E/--------------------------------------------------------------------------|

E/--------------------------------------------------------------------------|
B/--------------------------------------------------------------------------|
G/7-7-7-7-7-7-7-7-7-7-7-7-7-7-7-7-------------------------------------------|
D/7-7-7-7-7-7-7-7-7-7-7-7-7-7-7-7-5-5-5-5-5-5-3-3-3-3-3-3-3-3-3-3-3-3-------|
A/5-5-5-5-5-5-5-5-5-5-5-5-5-5-5-5-5-5-5-5-5-5-3-3-3-3-3-3-3-3-3-3-3-3-------|
E/--------------------------------3-3-3-3-3-3-1-1-1-1-1-1-1-1-1-1-1-1-------|

Verse
E/--------------------------------------------------------------------------|
B/--------------------------------------------------------------------------|
G/---------------------------3--5-5-----------------------------------------|
D/7-3-5----------------8-5-7-3--5-5---7-3-5----------------8-5-7-3------3---|
A/-----5-5-5-5-5-5-5-5-------1--3-3--------5-5-5-5-5-5-5-5-------3------3---|
E/---------------------------------------------------------------1------0---|

Pre Chorus
E/--------------------------------------------------------------------------|
B/--------------------------------------------------------------------------|
G/--------------------------------------------------------------------------|
D/---------------------------------------3-3-3-3-3-3-3-3-3-3-3--------------|
A/--7/9-7-6----4/9-4-3-4-4BD-4---7/9-7-6-3-3-3-3-3-3-3-3-3-3-3--------------|
E/-7--------4------------------7---------1-1-1-1-1-1-1-1-1-0-1--------------|

Solo
E/----------------------------------------------------------------------12--|
B/-----13---------------------------------10----------------------10h12-----|
G/9-10------9-10------10-12bu-12bu-10--12----10-12--9h10p9------------------|
D/----------------12---------------------------------------12-12------------|
A/--------------------------------------------------------------------------|
E/--------------------------------------------------------------------------|

E/------12------12------12-------16------16------18------18---17-19--17-19---|
B/10h12----10h12---10h12---13h15----13h15---15h17---15h17----------19-----19-|
G/---------------------------------------------------------------------------|
D/---------------------------------------------------------------------------|
A/---------------------------------------------------------------------------|
E/---------------------------------------------------------------------------|

E/17-19--17-19--17-19---------------------------18-19-20-20B--|
B/-----19-----19-----19--19B------------18-19-20--------------|
G/------------------------------18-19-20----------------------|
D/------------------------------------------------------------|
A/------------------------------------------------------------|
E/------------------------------------------------------------|

h= hammer on
p= pull off
bu= bend up
bd= bend down
/= slide down
a good song any suggestions on the song email me
have fun
comments
We did not receive enough feedback on this tab! Please rate:
print report bad tab
1 2 3 4 5
I want to post or [tab]
guest
You may want to rate the tab now too:
select rating
Please do not post tabs as comments. Select "correction" instead!