Oops, an error
Loading. Please wait.

Fire And The Fury Tab

version 1
version 1

Intro

Interactive

9,211 views 1 this week
2 commentsread comments
1 2 3 4 5
x 7
add to favorites
launch autoscroll
font size
0
reset
how to read this tab
guitar tuner
Autoscroll
slow
fast
+/-
esc
set tempo
stop
Help us to improve Ultimate-Guitar.com Take our survey!
×
Author
Difficulty
novice
i freakin love firewind but i only know the beginigs to there songs so
im hoping that its correct if not tell me,and it is in slack drop. stay metal!

kyle - from the land of ultimate guitarists!




and at this part make shure that you make the sexy face the gus does.

]---------------------------------------------------------[
]---------------------------------------------------------[
]--3-----------------------------3--4---4--3--------------[
]--3-----------------------------3--4---4--3--------------[
]--1-----------------------------1--2---2--1--------------[
]------000--000--000--000--000----------------------------[



]----------------------------------------------------[
]----------------------------------------------------[
]----------------------------3--4---4--3-------------[
]----------------------------3--4---4--3-------------[
]----------------------------1--2---2--1-------------[
]--000--000--000--000--000---------------------------[ x2


]---------------------------------[
]---------------------------------[
]------------------6-8-9-6-8------[
]------------------6-8-9-6-8------[
]------------------4-6-7-4-6------[
]--000--000--000------------------[



now after you do this repeat the whole thing over again but 
this time make it alot heavier. 

comment peaze!


Suggest correction
comments
print report bad tab
2 comments total.
+1 reply
valennic 341 Sep 25, 2007 10:51 PM

Pretty good, but i would go for the whole song, and try Escape from tomorrow, someone has to tab it...

+3 reply
De Amazing Blob 30 Dec 03, 2007 06:22 PM

Sorry, but this is pretty much completely incorrect...

guest
You may want to rate the tab now too:
select rating
Wanna post a correction for this tab? Suggest correction