Oops, an error
Loading. Please wait.

I Am The Anger Tab

version 1
version 1

Solo

Whole song

Interactive

2,459 views 1 this week
no commentswrite comment
1 2 3 4 5
accurate
x 1
add to favorites
launch autoscroll
font size
0
reset
how to read this tab
guitar tuner
Tab Pro tools
  • play this tab
  • loop segment
  • change instrument
  • show fretboard
  • metronome
Autoscroll
slow
fast
+/-
esc
set tempo
stop
Contributor

Firewind-I Am The Anger

Here we go:


Tab Key:

p=pull-off
b=bend
r=return bend
/=slide up
\=slide down
pm=palm mute
h=hammer-on
()=ghost note
X=dead note


                       Intro:

1st guitar:
e-------------------|
B-------------------|
G-------------------|
D-------------------|
A--5-5-5-5----------|
E-3-3-3-3-3-3-3-3-3-|x8

2nd guitar:
e-------------------|
B-------------------|
G-------------------|
D-7-----5-6-6-7-----|
A-7-----5-6-6-7-----|
E-5-----3-4-4-5-----|x8

                      Verse:

e---------------------------------|
B---------------------------------|
G---------------------------------|
D---------------------------5-6-7-|
A--7-7-7-7--5-6-7--7-7-7-7--------|
E-5-5-5-5---------5-5-5-5---------|x4

                     Pre-Chorus:

e-----------------------------------|
B-----------------------------------|
G-----------------------------------|
D-5-5---4-4---5-5-7-5-5-7---3-3-4-3-|
A-5-5---4-4---5-5-7-5-5-7---3-3-4-3-|
E-3-3---2-2---3-3-5-3-3-5---1-1-2-1-|

                       Chorus:

e-----------------------------------------------|
B-3---3/-4----5\-4--1h3/-4--3---3/4----5\-4-1h3-|
G--5-3-----7-5---------------5-3----7-5---------|
D-----------------------------------------------|
A-----------------------------------------------|
E-----------------------------------------------|x2

                   After Chorus:

1st guitar:
e-------------------|
B-------------------|
G-------------------|
D-------------------|
A--5-5-5-5----------|
E-3-3-3-3-3-3-3-3-3-|x4

2nd guitar:
e-------------------|
B-------------------|
G-------------------|
D-7-----5-6-6-7-----|
A-7-----5-6-6-7-----|
E-5-----3-4-4-5-----|x4

                     Verse:

e---------------------------------|
B---------------------------------|
G---------------------------------|
D---------------------------5-6-7-|
A--7-7-7-7--5-6-7--7-7-7-7--------|
E-5-5-5-5---------5-5-5-5---------|x4

                    Chorus:

e-----------------------------------------------|
B-3---3/-4----5\-4--1h3/-4--3---3/4----5\-4-1h3-|
G--5-3-----7-5---------------5-3----7-5---------|
D-----------------------------------------------|
A-----------------------------------------------|
E-----------------------------------------------|x2

                    Solo(rythm):

e------------------|
B------------------|
G----------------7-|
D--------8-------7-|
A--------8-4-4-4/5-|
E-5-5-5/-6---------|repeat that till the end of the solo

                   Chorus:

e-----------------------------------------------|
B-3---3/-4----5\-4--1h3/-4--3---3/4----5\-4-1h3-|
G--5-3-----7-5---------------5-3----7-5---------|
D-----------------------------------------------|
A-----------------------------------------------|
E-----------------------------------------------|x4


                          The End

Thank you for reading my tab

Song:I Am The Anger

Artist:Firewind

Album:Burning Earth

Tabbed by:ELIAS STASI
comments
We did not receive enough feedback on this tab! Please rate:
print report bad tab
1 2 3 4 5
I want to post or [tab]
guest
You may want to rate the tab now too:
select rating
Please do not post tabs as comments. Select "correction" instead!