Oops, an error
Loading. Please wait.

Insanity Tab

version 1
version 1

Whole song

Interactive

2,210 views 3 this week
2 commentsread comments
1 2 3 4 5
worth learning
x 3
add to favorites
launch autoscroll
font size
0
reset
how to read this tab
guitar tuner
Tab Pro tools
  • play this tab
  • loop segment
  • change instrument
  • show fretboard
  • metronome
Autoscroll
slow
fast
+/-
esc
set tempo
stop
Contributor
                              Insanity


                                                                        Firewind
Gus G

      INTRO/VERSE
                  PM         PM PM    PM PM PM PM PM PM PM PM
      Q           E  Q    E  E  E     E  E  E  E  E  E  E  E
D||--------------------------------|--------------------------|
A||--------------------------------|--------------------------|
F||*-------------------------------|--------------------------|
C||*--7--------------9----L--------|--------------------------|
G||---5--------------7----L--------|--------------------------|
D||---------------0----------0--0--|--0--0--0--0--0--0--0--0--|


                        PM    PM PM PM PM
  E  E  E   Q     Q     E     E  E  E  E   E   Q     E
---------------------------|----------------------------|
---------------------------|----------------------------|
---------------------------|----------------------------|
--9--7--9--10-----L\-------|--------------12--10-----L--|
--7--5--7---8-----L\-------|--------------10---8-----L--|
------------------------0--|--0--0--0--0----------------|


       PM         PM PM    PM PM PM PM PM PM PM               PM PM    PM PM
  Q    E  Q    E  E  E     E  E  E  E  E  E  E  E     Q    E  E  E  E  E  E
------------------------|--------------------------|------------------------|
------------------------|--------------------------|------------------------|
------------------------|--------------------------|------------------------|
--7-------9----L--------|--------------------------|--7----7--------7-------|
--5-------7----L--------|--------------------------|--5----5--------5-------|
------0----------0--0--|--0--0--0--0--0--0--0------|----------0--0-----0--0-|


  Q    E  E  E  E    Q       3x
-----------------------------||
-----------------------------||
----------------------------*||
----------------------------*||
--8----8---------------------||
--6----6--5--5--5--<>3br-----||
                     Pinch Harmonic

   Bridge
   T                     T                  T                  T
   S      S   S   S   S  S   S   S   S   S  S   S   S   S   S  S
--19p----12h-13p-12h-13-19p-12h-13p-12h-13-19p-12h-13p-12h-13-19p-|
------------------------------------------------------------------|
------------------------------------------------------------------|
------------------------------------------------------------------|
------------------------------------------------------------------|
------------------------------------------------------------------|


                  T              T
   S   S   S   S  S   S   S   S  S   S   S   S
--12h-13p-12h-13-20p-13p-12h-13-20p-13p-12h-13-|
-----------------------------------------------|
-----------------------------------------------|
-----------------------------------------------|
-----------------------------------------------|
-----------------------------------------------|


   T                  T                  T                  T
   S   S   S   S   S  S   S   S   S   S  S   S   S   S   S  S
--19p-12h-13p-12h-13-19p-12h-13p-12h-13-19p-12h-13p-12h-13-19p-|
---------------------------------------------------------------|
---------------------------------------------------------------|
---------------------------------------------------------------|
---------------------------------------------------------------|
---------------------------------------------------------------|


                  T              T
   S   S   S   S  S   S   S   S  S   S   S   S
--12h-13p-12h-13-20p-13p-12h-13-20p-13p-12h-13-|
-----------------------------------------------|
-----------------------------------------------|
-----------------------------------------------|
-----------------------------------------------|
-----------------------------------------------|


   The descending section is a bit fast for me, sorry
   T                                                                 T
   S                                                  S   S   S   S  S   S   S
--19p------------------------------------------------12h-13p-12h-13-19p-12h-13p--|
---------------------------------------------------------------------------------|
---------------------------------------------------------------------------------|
---------------------------------------------------------------------------------|
---------------------------------------------------------------------------------|
---------------------------------------------------------------------------------|


                  T              T
   S   S   S   S  S   S   S   S  S   S   S   S    W
--12h-13p-12h-13-20p-13p-12h-13-20p-13p-12h-13-|-------------------|
-----------------------------------------------|-------------------|
-----------------------------------------------|-------------------|
-----------------------------------------------|-------------------|
-----------------------------------------------|-------------------|
-----------------------------------------------|-------------------|


  VERSE REPEAT AS NECCESSARY
                             PM         PM PM    PM PM PM PM PM PM PM PM
  Q                          E  Q    E  E  E     E  E  E  E  E  E  E  E
----------------------------------------------|--------------------------|
----------------------------------------------|--------------------------|
----------------------------------------------|--------------------------|
--7-----------------------------9----L--------|--------------------------|
--5-----------------------------7----L--------|--------------------------|
-----------------------------0----------0--0--|--0--0--0--0--0--0--0--0--|


                        PM    PM PM PM PM
  E  E  E   Q     Q     E     E  E  E  E   E   Q     E
---------------------------|----------------------------|
---------------------------|----------------------------|
---------------------------|----------------------------|
--9--7--9--10-----L\-------|--------------12--10-----L--|
--7--5--7---8-----L\-------|--------------10---8-----L--|
------------------------0--|--0--0--0--0----------------|


       PM         PM PM    PM PM PM PM PM PM PM               PM PM    PM PM
  Q    E  Q    E  E  E     E  E  E  E  E  E  E  E     Q    E  E  E  E  E  E
------------------------|--------------------------|---------------------------|
------------------------|--------------------------|---------------------------|
------------------------|--------------------------|---------------------------|
--7-------9----L--------|--------------------------|--7----7--------7----------|
--5-------7----L--------|--------------------------|--5----5--------5----------|
------0----------0--0---|--0--0--0--0--0--0--0-----|----------0--0-----0--0----|
  Q    E  E  E  E    Q
----------------------------|
----------------------------|
----------------------------|
----------------------------|
--8----8--------------------|
--6----6--5--5--5--<>3br----|


  Pre Chorus, repeat as needed
  E                            E  E  E  E  E  Q       E  E  E  Q
---------------------------------------------------|-----------------|
---------------------------------------------------|-----------------|
---------------------------------------------------|-----------------|
---------------------------------------------------|-----------------|
---------------------------------------------------|-----------1~----|
--3----------------------------2--1--3--2--1--1----|--0--1--2--------|


  Chorus riff
  Q           Q    H           Q    Q    H           Q    Q    H
----------------------------|---------------------|---------------------|
----------------------------|---------------------|---------------------|
----------------------------|---------------------|---------------------|
--7-----------7----5--------|--2----2----3--------|--7----7----5--------|
--5-----------5----3--------|--0----0----1--------|--5----5----3--------|
----------------------------|---------------------|---------------------|


  Q    Q    H           E  E  E  E  E  E  E  E     E  E  E  E  E  Q    E
---------------------|--------------------------|-------------------------|
---------------------|--------------------------|-------------------------|
---------------------|--------------------------|-------------------------|
--2----2----3--------|--------------------------|-------------------------|
--0----0----1--------|-----------5--------5-----|-----5-----------7-------|
---------------------|--3--3--3--3--3--3--3--3--|--3--3--3--3--3--5----5--|


  W
-------------------|-----------||
-------------------|-----------||
-------------------|-----------||
-------------------|-----------||
--7----------------|-----------||
--5----------------|-----------||


Duration Legend
---------------
W - whole
H - half
Q - quarter
E - 8th
S - 16th
T - 32nd
X - 64th
. - note dotted
|-n-|  - n-tuplets


Tablature Legend
----------------
L - tied note
x - dead note
g - grace note
(n) - ghost note
> - accentuded note
NH - natural harmonic
AH - artificial harmonic
TH - tapped harmonic
SH - semi harmonic
PH - pitch harmonic
h - hammer on
p - pull off
b - bend
br - bendRelease
pb - preBend
pbr - preBendRelease
brb - bendReleaseBend
\n/ - tremolo bar dip
\n - tremolo bar dive
-/n - tremolo bar Release up
/n\ - tremolo bar inverted dip
/n - tremolo bar return
-\n - tremolo bar Release down
S - shift slide
s - legato slide
/ -  slide into from below or out of upwards
\ -  slide into from above or out of downwards
~ - vibrato
W - wide vibrato
tr - trill
TP - tremolo picking
T - tapping
S - slap
P - pop
< - fade in
^ - brush up
v - brush down
------------------------------------------------------------
Hope you like it so far, I haven't worked out the solos yet, a bit too fast for me still :)
Ill update it as soon as I can figure them out. Don't pay too much attention to the 
of the notes, cuz I couldn't get it right. So there, have fun!
(ANy corrections, please, no objections here. This is my first tab after all.)
comments
We did not receive enough feedback on this tab! Please rate:
print report bad tab
1 2 3 4 5
2 comments total.
0 reply
klooku12 wrote on October 25 2009, 03:41 am

lol

0 reply
klooku12 wrote on October 25 2009, 03:41 am

oh my god this is awfully

I want to post or [tab]
guest
You may want to rate the tab now too:
select rating
Please do not post tabs as comments. Select "correction" instead!