Oops, an error
Loading. Please wait.

Mercenary Man Bass Tab

version 1
version 1

Whole song

Interactive

856 views 1 this week
no commentswrite comment
1 2 3 4 5
please rate
add to favorites
launch autoscroll
font size
0
reset
guitar tuner
Tab Pro tools
  • play this tab
  • loop segment
  • change instrument
  • show fretboard
  • metronome
Autoscroll
slow
fast
+/-
esc
set tempo
stop
Contributor
"Mercenary Man" - Firewind

Tuning: D, G, C, F

Intro
F|------|---------------------------------------------------------|
C|------|---------------------------------------0---0-0--0--------|
G|-3----|--0--0-0---0---3---3-3--3--------------------------------|
D|----3-|---------------------------3--3-3--3---------------------| x3

F|--------------------------------------------0---0-0---0-0--0-----|
C|-----------------------------------------------------------------|
G|----------------------------0---0-0---0--------------------------|
D|-1--1-1---1---3---3-3----3---------------------------------------|


Verse (Rest)

Verse Continued
F|-----------------------------|
G|-----------------------------|
C|------0--0-------------------|
D|-1--1------3---3-3-3-3-3-3---| x4

Pre-Chorus
F|---------------------------------------------------------------------|
G|---------------------------------------------------------------------|
C|---------------------------------------------------------------------|
D|-5-5-5-5-5-5-5-3--5-5-5-5--3-1-3--5-5-5-5-5-5-5-5-7-7-7-7-7-7-7-7----|

Chorus (Play the intro without the first two notes) then

F|--------------------------------------------------------------------------|
C|--------------------------------------------------------------------------|
G|----------------------------0---0-0---0-----------------------------------|
D|-1--1-1---1---3---3-3----3----------------3--3-3--3---1~-----------10/8---|

Verse (Rest)
Verse Continued
Pre-Chorus
Chorus

F|----------------------------------------------------------------------------------|
C|----------------------------------------------------------------------------------|
G|----------------------------0---0-0---0-------------------------------3---3-3-----|
D|-1--1-1---1---3---3-3----3----------------3--3-3--3-3-3---1--1-1--1---------------|

------------------------------------------------------------------------------------|
------------------------------------------------------------------------------------|
3-----------------------------------------------------------------------------------|
--5-5-5-5-5-5-5-5-5-5-5-5-5-5-6-----------------------------------------------------|

Solo
F|------------------------------------------------------------|
G|------------------------------------------------------------|
C|------------------------------------------------------------|
D|-7---7-7---7---7-7-7-7-7-7-5----3--3-3--3---3-3-3-3-3-3-5---| x2

F|---------------------------------------------------------------------|
G|---------------------------------------------------------------------|
C|---------------------------------7-7-7-7-7-7-7-7-7-7-7-7-7-7-7-7-7---|
D|-3-3-3-3-3-3-3-3-3-3-3-3-3-3-3-3-------------------------------------|

F|------------------------------------------------------|
G|------------------------------------------------------|
C|------------------------------------------------------|
D|-3-3-3-3-3-3-3-3-3-3-3-3-3-3-3-3-5-5-5-5-5-5-5-5-6~---|

Ending Chorus
F|---------------------------------------------------------|
C|---------------------------------------2---2-2--2--------|
G|--2--2-2---2---5---5-5--5--------------------------------|
D|---------------------------5--5-5--5---------------------| x3

F|----------------------------------------------------------------------------------|
C|----------------------------------------------------------------------------------|
G|----------------------------------------------------------------7~----------------|
D|-3--3-3---3---5---5-5----5--7---7-7---7---5-5-5-5-5-5-5-5---3~------7~------------|

----------------------------------------|
----------------------------------------|
------------------------7-7/-|----------|
--5-5-5-5-5-5-5-3-3-3-3-3-3-3-3---------|
comments
We did not receive enough feedback on this tab! Please rate:
print report bad tab
1 2 3 4 5
I want to post or [tab]
guest
You may want to rate the tab now too:
select rating
Please do not post tabs as comments. Select "correction" instead!