Oops, an error
Loading. Please wait.

Mercenary Man Tab

version 1
version 1

Solo

Whole song

Interactive

1,205 views 1 this week
no commentswrite comment
1 2 3 4 5
please rate
add to favorites
launch autoscroll
font size
0
reset
how to read this tab
guitar tuner
Autoscroll
slow
fast
+/-
esc
set tempo
stop
Help us to improve Ultimate-Guitar.com Take our survey!
×
Contributor
ElStHf 20
TABBED BY ELIAS STASI          TAB KEY:

MERCENARY MAN-FIREWIND:        /=slide up,pm=palm mute
                               \=slide down,b=bend
SOLO:

e--------------------------------------------|
B-5/-9-8--9-8--------------------------------|
G-------8----8\-6----9-7-6-9-7-6-9-7-6-9-7-6-|
D--------------------------------------------|
A--------------------------------------------|
E--------------------------------------------|


e-----------------------------|
B-5/-9-8--5/-9-8--------15-14-|
G-------8-------8/-16-19------|
D-----------------------------|
A-----------------------------|
E-----------------------------|


e---------------------|
B-5-6-6--6-7-7--7-8-8-|
G---------------------|
D---------------------|
A---------------------|
E---------------------|You have to be very quick


e-------------------------------------|
B-9-8--9-8----------------------------|
G----8----8/-9b--10-11pm-12-13pm--14b-|
D-------------------------------------|
A-------------------------------------|
E-------------------------------------|


                 THE END!!!!!!!
comments
We did not receive enough feedback on this tab! Please rate:
print report bad tab
1 2 3 4 5
I want to post or [tab]
guest
You may want to rate the tab now too:
select rating
Please do not post tabs as comments. Select "correction" instead!