Oops, an error
Loading. Please wait.

Mercenary Man Tab

version 1
version 1

Whole song

Interactive

12,627 views 3 this week
3 commentsread comments
1 2 3 4 5
accurate
x 6
add to favorites
launch autoscroll
font size
0
reset
how to read this tab
guitar tuner
Autoscroll
slow
fast
+/-
esc
set tempo
stop
Help us to improve Ultimate-Guitar.com Take our survey!
×
Author
Difficulty
Tuning
intermediate
D G C F A D
-------------------------------------------------------------------------------
                             MERCENARY MAN - firewind
-------------------------------------------------------------------------------
Tabbed by:Shaun Thomas
Email:xinix7@yahoo.com

Tuning:dgcfad - whole step down

This is my first tab so any suggestions or correction would be awesome.

INTRO LEAD

e|---------------------------------------------------------------------------|
B|-------10-12-10---------------------10-12-10-------------------------------|
G|--9-12----------12-7-12-7~-----9-12----------12-7-12-12~-------------------|
D|---------------------------8-----------------------------------------------|
A|---------------------------------------------------------------------------|
E|---------------------------------------------------------------------------|

e|---------------------------------------------------------------------------|
B|-------10-12-10-------------------13-15-17-15-13---------------------------|
G|--9-12----------12-7-12-7~-----14----------------14-12-12h14---------------|
D|---------------------------8-----------------------------------------------|
A|---------------------------------------------------------------------------|
E|---------------------------------------------------------------------------|

INTRO SECOND GUITAR

e|---------------------------------------------------------------------------|
B|---------------------------------------------------------------------------|
G|---------------------7~----------------------------------------------------|
D|-2-5-7~---10~---3~---7~----7~--10~---5~----5-5---5-5-----------------------|
A|-2-5-7~---10~---3~---5~----7~--10~---5~----5-5---5-5-----------------------|
E|-0-3-5~----8~---1~---------5~---8~---3~--3-3-3-3-3-3-----------------------|


e|---------------------------------------------------------------------------|
B|---------------------------------------------------------------------------|
G|-----------------7~----------7---------------------------------------------|
D|-7~---10~---3~---7~-----3~---7---7----5-5---5-5----------------------------|
A|-7~---10~---3~---5~-----3~---5---7----5-5---5-5----------------------------|
E|-5~----8~---1~----------1~-------5--3-3-3-3-3-3----------------------------|

Verse

Repeat 3 Times
e|---------------------------------------------------------------------------|
B|---------------------------------------------------------------------------|
G|---------------------------------------------------------------------------|
D|-10------14--------12----------------------12\-----------------------------|
A|--8-8-8--12-12-12--10-10-10-10-10-10-10-10-10\-----------------------------|
E|---------------------------------------------------------------------------|

e|---------------------------------------------------------------------------|
B|---------------------------------------------------------------------------|
G|---------------------------------------------------------------------------|
D|-10------14--------12\-----------------------------------------------------|
A|--8-8-8--12-12-12--10\-----------------------------------------------------|
E|---------------------------------------------------------------------------|

Verse part dos

e|---------------------------------------------------------------------------|
B|---------------------------------------------------------------------------|
G|---------------------------------------------------------------------------|
D|-3----7----5------3-------------------5---5-5---------5-5------2-----------|
A|-3----7----5--x4--3-------------------5---5-5---------5-5--x2--2-----------|
E|-1----5----3------1-1-1-1-1-1-1-1-1-1-3-3-3-3-3-3-3-3-3-3------0-----------|

Chorus - this is the same as the second guitar for the intro

e|---------------------------------------------------------------------------|
B|---------------------------------------------------------------------------|
G|---------------------7~----------------------------------------------------|
D|-2-5-7~---10~---3~---7~----7~--10~---5~----5-5---5-5-----------------------|
A|-2-5-7~---10~---3~---5~----7~--10~---5~----5-5---5-5-----------------------|
E|-0-3-5~----8~---1~---------5~---8~---3~--3-3-3-3-3-3-----------------------|


e|----------------------|--------------------------|-----------------------------|
B|----------------------|--------------------------|-----------------------------|
G|-----------------7~---|-------7------------------|-----------------------------|
D|-7~---10~---3~---7~---|--3~---7---7----5-5---5-5-|--play this------------------|
A|-7~---10~---3~---5~---|--3~---5---7----5-5---5-5-|--twice before solo----------|
E|-5~----8~---1~--------|--1~-------5--3-3-3-3-3-3-|-----------------------------|

Verse again, then chorus again, then solo:

e|---------------------------------------------------------------------------|
B|--15-14----15-14--------15-14----15-14----19~-17--19-17----19-17-----------|
G|--------14-------14-12~-------14-------14---------------18-------18-18br---|
D|---------------------------------------------------------------------------|
A|---------------------------------------------------------------------------|
E|---------------------------------------------------------------------------|

e|---------------------------------------------------------------------------|
B|-------12b--17b------------------------------------------------------------|
G|--14b----------------------------------------------------------------------|
D|---------------------------------------------------------------------------|
A|---------------------------------------------------------------------------|
E|---------------------------------------------------------------------------|

Play the chorus one last time and its over


| /  slide up
| \  slide down
| h  hammer-on
| p  pull-off
| ~  hold note
| +  harmonic
| x  Mute note
===============================================================================
Suggest correction
comments
print report bad tab
3 comments total.
0 reply
rhcpfan27 117 wrote on April 16 2008, 11:22 pm

e|---------------------------------------------------------------------------|
B|-------10-12-10---------------------10-12-10-------------------------------|
G|--9-12----------12-7-12-5~-----9-12----------12-7-12-12~-------------------|
D|---------------------------8-----------------------------------------------|
A|---------------------------------------------------------------------------|
E|---------------------------------------------------------------------------|

yeah o the intro it should be a five and not a seven i messed that up

0 reply
brokenunder 364 wrote on April 17 2008, 08:39 am

dude the way i play it is

e|------------------------------------------------------------------|
B|-5-8-10-12-10p8-5-8-3-1-----5-8-10-12-10p8-5-8-/8-----------------|
G|------------------------------------------------------------------|
D|------------------------------------------------------------------|
A|------------------------------------------------------------------|
E|------------------------------------------------------------------|

i just find it easier.

oh and the pre-chorus i think is

e|------------------------------------------------------------------|
B|------------------------------------------------------------------|
G|----7--7-5--------------------------------------------------------|
D|-3--7--7-5------3---5---6-----------------------------------------|
A|-3--5--5\3------3---5---7-----------------------------------------|
E|-1--------------1---3---4-----------------------------------------|

+1 reply
Neverhead666 124 wrote on May 20 2008, 06:01 pm

tab is good, although the solo is incomplete. other than that, good work

guest
You may want to rate the tab now too:
select rating
Please do not post tabs as comments. Select "correction" instead!