Oops, an error
Loading. Please wait.

No Heroes No Sinners Acoustic Tab

460 views 1 this week
1 commentread comment
1 2 3 4 5
3 more votes to show rating
add to favorites
launch autoscroll
font size
0
reset
how to read this tab
guitar tuner
Autoscroll
slow
fast
+/-
esc
set tempo
stop
Help us to improve Ultimate-Guitar.com Take our survey!
×
Author
Difficulty
intermediate
Standard tuning (1)EBGDAe(6)
But Gus G has all of his songs on D Tuning (1)DAFCGd(6) so this should be adjusted to it

Intro/Chorus

E|---|  |---|  |----|  |----|      |---|
B|---|  |---|  |----|  |----|      |---|
G|-7-|  |-5-|  |-10-|  |-12-|      |-7-|
D|-7-|  |-5-|  |-10-|  |-12-|  x2  |-7-|
A|-5-|  |-3-|  |-8--|  |-10-|      |-5-|
e|---|  |---|  |----|  |----|      |---|


E|-----------|  |-5----|  |-----------|  |-3----|
B|-7----7----|  |-----5|  |-5----5----|  |-----3|
G|---6-----6-|  |---7--|  |---4-----4-|  |---5--|
D|--------9--|  |------|  |--------9--|  |------|
A|--9----9---|  |--7---|  |--7----7---|  |--5---|
E|-7---7-----|  |-5--5-|  |-5---5-----|  |-3--3-|

Pre-Chorus:

E|---|  |---|  |---|  |---|
B|---|  |---|  |---|  |---|
G|-5-|  |-3-|  |-5-|  |-3-|
D|-5-|  |-3-|  |-6-|  |-4-|
A|-3-|  |-1-|  |-6-|  |-4-|
E|---|  |---|  |-4-|  |-2-|

E|---|       |---|      |---|       |---|  |-------------|
B|---| Play  |---|      |---|       |---|  |-------------|
G|-3-| this  |-5-| Only |-3-| Once  |---|  |-------------|
D|-3-| a few |-6-| Once |-4-| Too   |-3-|  |-0/3/4/3-0-3-|
A|-1-| Times |-6-|      |-4-|       |-3-|  |-0/3/4/3-0-3-|
E|---|       |-4-|      |-2-|       |-1-|  |-0/1/2/1-0-1-|

E|---|  |---|  |---|  |---|  |---|     |-------------|
B|---|  |---|  |---|  |---|  |---|     |-------------|
G|-3-|  |---|  |-3-|  |-5-|  |-3-|     |-------------|
D|-3-|  |-4-|  |-3-|  |-5-|  |-3-| x3  |-------------|
A|-1-|  |-4-|  |-1-|  |-3-|  |-1-|     |-------0/2/4-|
E|---|  |-2-|  |---|  |---|  |---|     |-0/2/4-------|
Suggest correction
Give kudos to tab author, rate the tab!
1 2 3 4 5
comments
print report bad tab
1 comment total.
0 reply
MrBeefs 89 Apr 20, 2013 11:05 PM

Intro/chorus is actually 755 and 533 and not 977 755

guest
You may want to rate the tab now too:
select rating
Wanna post a correction for this tab? Suggest correction