Oops, an error
Loading. Please wait.

The Essence Tab

version 1
version 1

Whole song

Interactive

2,067 views 1 this week
4 commentsread comments
1 2 3 4 5
accurate
x 4
add to favorites
launch autoscroll
font size
0
reset
how to read this tab
guitar tuner
Autoscroll
slow
fast
+/-
esc
set tempo
stop
Help us to improve Ultimate-Guitar.com Take our survey!
×
Author
Tabber: white_dragon_paladin@hotmail.com/Tboi
Tuning: Drop-D
Sorry but, I'm Still Working On The Bridge, so it isn't finished. It Should Be done in a 
While.
 ___________________________________________________________________
|                           The Essence                             |
|___________________________________________________________________|

Legend:
x = palm mute

  Intro
e|------/11-11-10---------1616----1515----1313----15-1515-16----|
b|---------------11-9~--13----1313----1313----1313-----------14~|
g|--------------------------------------------------------------|
d|-13/----------------------------------------------------------|
a|-13/----------------------------------------------------------|
d|-13/----------------------------------------------------------|

e|---------------------------8-10-11-13-15/-|
b|------------------------------------------|
g|--8-800770055007-77-8---------------------|
d|----------------------6~/-----------------|
a|------------------------------------------|
d|------------------------------------------|
  Pre-Verse                                            repeat x3
e|-----------------------------------------------------------1-----|
b|---1-3-4---1-3-4---1-3-4---1-3-1---1-3-4---1-3-4---1-3-4-----4-3-|
g|-0-------1-------2-------1-------0-------1-------2-------1-------|
d|-----------------------------------------------------------------|
a|-----------------------------------------------------------------|
d|-----------------------------------------------------------------|
  Verse 1
    xxx xxx xx     xxx xxx xx     xxx xxx xx     xxx    xxx
e|-------------------------------------------------------------|
b|-------------------------------------------------------------|
g|5------------555------------553------------33-------3-----35-|
d|5-555-555-55-556-666-666-66-663-333-333-33-336-666-63-333-35-|
a|3-333-333-33-333-333-333-33-331-111-111-11-116-666-61-111-13-|
d|---------------------------------------------6-666-6---------|
    xxx xxx xx     xxx xxx xx     xxx xxx xx     xxx    xxx
e|--------------------------------------------------------------|
b|--------------------------------------------------------------|
g|5------------555------------553------------33-----------------|
d|5-555-555-55-556-666-666-66-663-333-333-33-336-666-63-333-333-|
a|3-333-333-33-333-333-333-33-331-111-111-11-116-666-63-333-333-|
d|---------------------------------------------6-666-63-333-333-|
  Pre-Chorus     repeat x2
e|-3-----3-----1--3-4-3-|
b|-3-----3-----1------3-|
g|-4-----4-----2------4-|
d|-5-----5-----3------5-|
a|-5-----5-----3------5-|
d|----------------------|
  Chorus                        repeat x2             only play on x1
     xxxx   x xxx    xxx xxx     xx   xx xxx    xxxxx    xxxxxx x
e|----------------------------------------------------------------|
b|----------------------------------------------------------------|
g|-5------3--------------------------------------------3----------|
d|-5-555--3-3-333--6---------6666---3---------1------1-3-333333-3-|
a|-3-333--1-1-111--6-666-666-666666-3-33-3333-1-111111-1-111111-1-|
d|-----------------6-666-666-666666-3-33-3333-1-111111------------|
   xxxxxx
e|--------|
b|--------|
g|--------|
d|-333333-|
a|-111111-|
d|--------|

Play Verse And Chorus Then Play Bridge/Interlude-do NOT play the Pre-Verse!

Note: The Bridge/Interlude needs TWO guitars.

  2:29
  Rhythm Guitar
e|-----------------------------------------------------------------------|
b|---1-4----1-3----------1-4----1-3----------1-3-----1---5-1-------------|
g|-0------0------------1------0------------2-----0-2---2-----------7-8-7-|
d|---------------------------------------------------------------6-------|
a|-----------------------------------------------------------------------|
d|-----------------------------------------------------------5-6---------|
            x3
e|---------3-----|
b|-------3---3---|
g|-----5-------5-|
d|---5-----------|
a|---------------|
e|-5-------------|

Lead Guitar
e|----------------------------------------------------------|
b|-6fb-6-6fb-64---6fb-6-6fb-65------------------------------|
g|-------------------------------7fb-7-5-8-8fb-7-5-4-5-12ah-|
d|----------------------------------------------------------|
a|----------------------------------------------------------|
e|----------------------------------------------------------|

e|---------------------------------------|
b|-18fb-18-18fb-18-16-18fb-18-18fb-18-17-|
g|---------------------------------------|
d|---------------------------------------|
a|---------------------------------------|
e|---------------------------------------|


That's all I have down for now...
Suggest correction
comments
print report bad tab
4 comments total. Showing first comments.
0 reply
john_lord 10 wrote on April 17 2007, 03:11 am

Nice! Thanx a lot for the tab! Please post more new Firewind tabs!

0 reply
hellsdefender 72 wrote on September 26 2007, 07:45 am

grate tab !!!

+1 reply
sam b 7,554 wrote on October 8 2008, 05:04 pm

Solo?


It's in D standard too

guest
You may want to rate the tab now too:
select rating
Please do not post tabs as comments. Select "correction" instead!