Oops, an error
Loading. Please wait.

Where Do We Go From Here Tab

2,524 views 1 this week
no commentswrite comment
1 2 3 4 5
accurate
x 4
add to favorites
launch autoscroll
font size
0
reset
how to read this tab
guitar tuner
Autoscroll
slow
fast
+/-
esc
set tempo
stop
Help us to improve Ultimate-Guitar.com Take our survey!
×
Author
-------------------------------------------------------------------------------
                             Where Do We Go From Here - Firewind
-------------------------------------------------------------------------------
Tabbed by: brokenunder
Email:tears--dont--fall@hotmail.co.uk

Tuning: DGCFAD

update: corrected the verse and chorus chords and bits of the solos

Intro

d|---------------------------------------------------------------------------|
A|---------------------------------------------------------------------------|
F|---------------------------------------------------------------------------|
C|-777-77-555-55--777-77-555105---777-77-555-55-333-33-5~--------------------|
G|-777-77-555-55--777-77-555105---777-77-555-55-333-33-5~--------------------|
D|-555-55-333-33--555-55-333-83---555-55-333-33-111-11-3~--------------------|

Intro solo-played over the rhythm above

d|----12-15-15b17-----12-15-15b17-17-15-15h17p15----12-15-17-19-19b20--------|
A|-/13-------------/13---------------------------17--------------------------|
F|---------------------------------------------------------------------------|
C|---------------------------------------------------------------------------|
G|---------------------------------------------------------------------------|
D|---------------------------------------------------------------------------|

d|15h17p15p12-15h17p15p12------------------------------12-----12-----12------|
A|------------------------15h17p15p12-15h17p15p12-15b17--15b17--15b17--------|
F|---------------------------------------------------------------------------|
C|---------------------------------------------------------------------------|
G|---------------------------------------------------------------------------|
D|---------------------------------------------------------------------------|

d|-----12------------------17------------------------------------------------|
A|15b17--17p15p13--13-15b17--17rb--------------------------------------------|
F|----------------14---------------------------------------------------------|
C|----------------------------------7~---------------------------------------|
G|----------------------------------7~---------------------------------------|
D|----------------------------------5~---------------------------------------|

Verse

d|---------------------------------------------------------------------------|
A|---------------------------------------------------------------------------|
F|--7-7-7-------5-5-5--------------------------------------------------------|
C|--7-7-7-7-7-7-5-5-5-5-5-5--------------X4----------------------------------|
G|--5-5-5-7-7-7-3-3-3-5-5-5--------------------------------------------------|
D|--------5-5-5-------3-3-3--------------------------------------------------|

Prechorus

d|---------------------------------------------------------------------------|
A|---------------------------------------------------------------------------|
F|---------------------------------------------------------------------------|
C|3--5--3--5--3--5--3-333----------------------------------------------------|
G|3--5--3--5--3--5--3-333----------------------------------------------------|
D|1~-3~-1~-3~-1~-3~-1~111----------------------------------------------------|
                                        . . .

Chorus

d|---------------------------------------------------------------------------|
A|---------------------------------------------------------------------------|
F|--7-7-7-------5-5-5--------------------------------------------------------|
C|--7-7-7-7-7-7-5-5-5-5-5-5--------------X4----------------------------------|
G|--5-5-5-7-7-7-3-3-3-5-5-5--------------------------------------------------|
D|--------5-5-5-------3-3-3--------------------------------------------------|



Solo

d|12----12------12------------15-17-17p15p12h17-17p15p12h17-17p15p12-20b22r20|
A|15b17---15b17----15b17r15--------------------------------------------------|
F|---------------------------------------------------------------------------|
C|---------------------------------------------------------------------------|
G|---------------------------------------------------------------------------|
D|---------------------------------------------------------------------------|

d|15h17p15h17p15h17p15-12h15p12h15p12----------------------------------------|
A|------------------------------------15h17p15-12h12h15p13p12----------------|
F|------------------------------------------------------------14p12divebomb--|
C|---------------------------------------------------------------------------|
G|---------------------------------------------------------------------------|
D|---------------------------------------------------------------------------|
    This fast bit is really hard to work out and probably isnt right its just a rough guess


d|---------------------------------------------------------------------------|
A|-15b17-ph-----------------ph-----------------------------------------------|
F|-------12------------------------------------------------------------------|
C|----------14-13-12-10-7-6-5------------------------------------------------|
G|---------------------------------------------------------------------------|
D|---------------------------------------------------------------------------|
      the whole solo is wrong i think but this gives you a rough idea of what it is

Verse

Chorus-instead of the last chord palm mute 079xxx

Bridge

Rhythm

d|---------------------------------------------------------------------------|
A|---------------------------------------------------------------------------|
F|----7---------------7----9999999999999-------------------------------------|
C|-3--7--7--55-55--3--7--7-9999999999999-------------------------------------|
G|-3--5--7--55-55--3--5--7-7777777777777-------------------------------------|
D|-1-----5--33-33--1-----5-0000000000000-------------------------------------|
                                                 .......................

Solo

d|/15------/15-------------------------------------------------15----15b17br15|
A|---13-12----13-12-12h13p12p10-10-12-13-15b17br15-15p13p12h13--13-12---------|
F|----------------------------------------------------------------------------|
C|----------------------------------------------------------------------------|
G|----------------------------------------------------------------------------|
D|----------------------------------------------------------------------------|

d|-17p15p12h17-17p15p12h17-17p15p12-15p14p1215p14p1215p14p1215p14p12---------|
A|---------------------------------------------------------------------------|
F|---------------------------------------------------------------------------|
C|---------------------------------------------------------------------------|
G|---------------------------------------------------------------------------|
D|---------------------------------------------------------------------------|

d|-17p15p1217p15p1217p15p1217p15p12-17b19------------------------------------|
A|---------------------------------------------------------------------------|
F|---------------------------------------------------------------------------|
C|---------------------------------------------------------------------------|
G|---------------------------------------------------------------------------|
D|---------------------------------------------------------------------------|

Breakdown bit

d|---------------------------------------------------------------------------|
A|---------------------------------------------------------------------------|
F|-7-------------------------------------------------------------------------|
C--7-77-10-5-9-109-5---------------------------------------------------------|
G|-5-77-10-5-9-109-5---------------------------------------------------------|
D|---55-8--3-7-8-7-3---------------------------------------------------------|

Outro solo


d|----12-15-15b17-----12-15-15b17-17-15-15h17p15----12-15-17-19-19b20--------|
A|-/13-------------/13---------------------------17--------------------------|
F|---------------------------------------------------------------------------|
C|---------------------------------------------------------------------------|
G|---------------------------------------------------------------------------|
D|---------------------------------------------------------------------------|

d|-17------------17---------20b22-17------------17---------20b22-------------|
A|---20p17h20b22---20p17h20---------20p17h20b22---20p17h20-------------------|
F|---------------------------------------------------------------------------|
C|---------------------------------------------------------------------------|
G|---------------------------------------------------------------------------|
D|---------------------------------------------------------------------------|

d|-17------------17------------22b24rb22---1920191719171517151215121012107107|
A|---20p17h20b22---20p17h20b22-----------------------------------------------|
F|---------------------------------------------------------------------------|
C|---------------------------------------------------------------------------|
G|---------------------------------------------------------------------------|
D|---------------------------------------------------------------------------|

d|575------------------------------------------------------12h15p12----------|
A|---71075-5h7h8p7p5h7h8p5h7h8p5h7h8------------12-13-15b17---------15b17----|
F|-----------------------------------------12-14-----------------------------|
C|------------------------------------14-16----------------------------------|
G|---------------------------------------------------------------------------|
D|---------------------------------------------------------------------------|


d|-12h15p12-----------------/15------------/15b17-20-19-17h19p17-15-17182022~|
A|----------15b17------------------------------------------------------------|
F|------------------141617----1617--141617-----------------------------------|
C|---------------------------------------------------------------------------|
G|---------------------------------------------------------------------------|
D|---------------------------------------------------------------------------|


| /  slide up
| \  slide down
| h  hammer-on
| p  pull-off
| ~  vibrato
| +  harmonic
| x  Mute note
===============================================================================
Suggest correction
What's this?
You can suggest a correction to this tab. Community and Mods will review your correction and vote to approve or reject it.
comments
print report bad tab
guest
You may want to rate the tab now too:
select rating
Please do not post tabs as comments. Select "correction" instead!