Oops, an error
Loading. Please wait.

Holiday tab

1,123 views 1 this week
2 commentsread comments
1 2 3 4 5
1 last vote to show rating
add to favorites
×
Save as Personal and add changes to this tab that will be seen only by you. Learn more ›
×
You can save this tab as Personal to edit and correct it or add notes. All changes will be seen only by you. Learn more »
launch autoscroll
font size
0
reset
how to read this tab
guitar tuner
edit
Autoscroll
slow
fast
+/-
esc
set tempo
stop
Tuning - Drop C#: (C# G# C# F# A# D#)

Intro: (Guitar 1)
                1st& 3rd ending    2nd and 4th ending
E|------------|-------------------|---------------------|
B|------------|-------------------|---------------------|
G|------------|-------------------|---------------------|
D|------------|-0000--9999--5-7-7-|--5555--9999-5-7-4---|
A|-------4h5--|-0000--9999--5-7-7-|--5555--9999-5-7-4---|
E|-0-4h7------|-0000--9999--5-7-7-|--5555--9999-5-7-4---|

(Guitar 2: Distorted) Come in 3rd time through rhythm
                                  1st time end   2nd time ending
E|-------------------------------|--------------|-----------------|-------|
B|-------------------------------|--------------|-----------------|-------|
G|-/11-11-11-11-11-9-7-----7-----|-12-11-9-7----|----7--9b--7~----|-------|
D|----------------------7h9------|--------------|-7h9-------------|-------|
A|-------------------------------|--------------|-----------------|-------|
E|-------------------------------|--------------|-----------------|-------|


Verse 1: (Guitar 1: Clean)
E|----------------------------|
B|----------------------------|
G|----------------------------|
D|---000000--9999-7777--------|
A|---000000--9999-7777--x4----|
E|---000000--9999-7777--------|
(My friend Detroit...)

(Guitar 2: Clean)          He does this the 3rd time through distorted
E|----------------------|----------14~----------------|
B|-7------------7-------|---------------15~-----------|
G|--7----7-----7-7---x4-|-----------------------------|
D|---7--7-----5---------|-----------------------------|
A|-----5-----5----------|-----------------------------|
E|----------5-----------|-----------------------------|
(This might be right? It sounds right to me, but it's played quietly over the chords

Pre Chorus: (Both Guitars)
E|---------------------------------------------------------------|
B|---------------------------------------------------------------|
G|---------------------------------------------------------------|
D|-22222222--5555--7777------------------------------------------|
A|-22222222--5555--7777--x2--------------------------------------|
E|-22222222--5555--7777------------------------------------------|
(In this basement...)

Chorus: (Both Guitars)
                1st ending          2nd ending
E|------------|------------------|-------------------------|
B|------------|------------------|-------------------------|
G|------------|------------------|-------------------------|
D|------------|-0000--9999--7777-|-555555-9-9-9-9--5-7-4---|
A|-------4h5--|-0000--9999--7777-|-555555-9-9-9-9--5-7-4---|
E|-0-4h7------|-0000--9999--7777-|-555555-9-9-9-9--5-7-4---|
(The Wind isn't bringing...)

Post Chorus: (Both Guitars)
E|--------------------------------------|
B|--------------------------------------|
G|--------------------------------------|
D|-000000-555555-999999-777777----------|
A|-000000-555555-999999-777777--x2------|
E|-000000-555555-999999-777777----------|
(Only rain on your...)

(Guitar 2: Distorted)
E|----------------------------------------------|
B|-7---8---7---5--------------------------------|
G|--7---7---7---7---x2--------------------------|
D|---7---7---7---7------------------------------|
A|----------------------------------------------|
E|----------------------------------------------|

Verse 1: (Guitar 1: Clean)
E|----------------------------|
B|----------------------------|
G|----------------------------|
D|---000000--9999-7777--------|
A|---000000--9999-7777--x2----|
E|---000000--9999-7777--------|

Verse 2: Part 1 (Guitar 2: Clean)
E|----------------------|
B|-7------------7-------|
G|--7----7-----7-7---x2-|
D|---7--7-----5---------|
A|-----5-----5----------|
E|----------5-----------|

Verse 2: Part 2 (Both Guitars)
                   1st Ending             2nd Ending
E|---------------|----------------------|------------------------------|
B|---------------|----------------------|------------------------------|
G|---------------|----------------------|------------------------------|
D|-0-0000-0-0000-|-9999999999-777777777-|-9-9-9-9--7-7-7-7-------------|
A|-0-0000-0-0000-|-9999999999-777777777-|-9-9-9-9--7-7-7-7-------------|
E|-0-0000-0-0000-|-9999999999-777777777-|-9-9-9-9--7-7-7-7-------------|
PM   ....   ....   .......... .........

Pre Chorus 2: (Both Guitars)
             1st ending   2nd ending
E|----------|------------|----------------|
B|----------|------------|----------------|
G|----------|------------|----------------|
D|-22222222-|-5555--7777-|-555555-777777--|
A|-22222222-|-5555--7777-|-555555-777777--|
E|-22222222-|-5555--7777-|-555555-777777--|
PM:                        ...... ......
(In this basement...)

Chorus 2:(Both Guitars)
                     1st ending        2nd (Start to finish)
E|---------------|------------------|------------------------------------|
B|---------------|------------------|------------------------------------|
G|-------7h9-----|------------------|------------------------------------|
D|---7h9---------|-0000--9999--7777-|-----------555555--9-9-9-9--5-7-4---|
A|---------------|-0000--9999--7777-|-------5h7-555555--9-9-9-9--5-7-4---|
E|-0-------------|-0000--9999--7777-|-0-5h7-----555555--9-9-9-9--5-7-4---|
(The Wind isn't bringing...)

Post Chorus 2: (Both Guitars)
E|--------------------------------------|
B|--------------------------------------|
G|--------------------------------------|
D|-000000-555555-999999-777777----------|
A|-000000-555555-999999-777777--x2------|
E|-000000-555555-999999-777777----------|
(Only rain on your...)

Bridge: (Both Guitars)
    First 3 times                              4th time
E|------------------------------------------|----------------------------|
B|------------------------------------------|----------------------------|
G|------------------------------------------|----------------------------|
D|-5555555-999999-777777---x3---------------|-22222222--7-7-7-7-7-7-7-7--|
A|-5555555-999999-777777--------------------|-22222222--7-7-7-7-7-7-7-7--|
E|-5555555-999999-777777--------------------|-22222222--7-7-7-7-7-7-7-7--|
(Pictures..)

Final Chrous:(Both Guitars)
E|-----------|------------|---------------------------------|
B|-----------|------------|---------------------------------|
G|-----------|------------|---------------------------------|
D|-Feedback--|-5-7-4------|-000000-555555--9-9-9-9--5-7-4---|
A|-----------|-5-7-4------|-000000-555555--9-9-9-9--5-7-4---|
E|-----------|-5-7-4------|-000000-555555--9-9-9-9--5-7-4---|
(The Wind..) (That isn't!)  (Sun behind...)


(Both Guitars)
                  1st ending     2nd ending
E|---------------|------------|------------------|
B|---------------|------------|------------------|
G|---------------|------------|------------------|
D|-00000-555555--|-9999--7777-|-9-9-9-9--5-7-4---|
A|-00000-555555--|-9999--7777-|-9-9-9-9--5-7-4---|
E|-00000-555555--|-9999--7777-|-9-9-9-9--5-7-4---|
(The wind isn't bringing..)

Outro: (Guitar 1: Distorted)
                1st ending          2nd ending
E|------------|-------------------|---------------------|
B|------------|-------------------|---------------------|
G|------------|-------------------|---------------------|
D|------------|-0000--9999--5-7-7-|--5555--9999-5-7-4---|
A|-------4h5--|-0000--9999--5-7-7-|--5555--9999-5-7-4---|
E|-0-4h7------|-0000--9999--5-7-7-|--5555--9999-5-7-4---|
(Only rain on..)
(Guitar 2: Distorted) Come in 3rd time through rhythm
                                  1st time end   2nd time ending
E|-------------------------------|--------------|-----------------|
B|-------------------------------|--------------|-----------------|
G|-/11-11-11-11-11-9-7-----7-----|-12-11-9-7----|----7--9b--7~----|
D|----------------------7h9------|--------------|-7h9-------------|
A|-------------------------------|--------------|-----------------|
E|-------------------------------|--------------|-----------------|

(Both Guitars)
E|--------------------|
B|--------------------|
G|--------------------|
D|-0-0-0-0-0-0-0-0-0--|
A|-0-0-0-0-0-0-0-0-0--|
E|-0-0-0-0-0-0-0-0-0--|
The wind isn't...)

This tab took me a while so enjoy. I did this from a request on the youtube video for 
this song. http://www.youtube.com/watch?v=iKKgMVLUKEk
Listen, enjoy, and play!
Suggest correction
Creating personal tab
Creating personal tab
You can edit any tab online and save it as your Personal.

You can edit, replace or remove any tab part or add personal notes – all changes will be seen only by you.

Personal tabs can be accessed anytime from any device, even offline.
Learn more »
Give kudos to tab author, rate the tab!
1 2 3 4 5
comments
print report bad tab
2 comments total.
0 reply
PotatoSpud 145 Jun 07, 2015 12:13 PM

Intro should be
D#|---------------------------------------------------------------|
A#|---------------------------------------------------------------|
F#|---------------------------------------------------------------|
C#|---------------------------------------------------------------|
G#|---------4h5---------------------------------------------------|
C#|-0----4h7------------------------------------------------------|

other than that seems good

guest
You may want to rate the tab now too:
select rating
Wanna post a correction for this tab? Suggest correction