Oops, an error
Loading. Please wait.

Brother chords

version 2
version 2

Whole song

2,081 views 21 this week
no commentswrite comment
1 2 3 4 5
x 5
add to favorites
×
Save as Personal and add changes to this tab that will be seen only by you. Learn more ›
×
You can save this tab as Personal to edit and correct it or add notes. All changes will be seen only by you. Learn more »
launch autoscroll
font size
0
reset
transpose
0
reset
display chords
guitar tuner
edit
Autoscroll
slow
fast
+/-
esc
set tempo
stop
Strumming
There is no strumming pattern for this song yet. and get +5 IQ
FIRST AID KIT - BROTHER

Capo 5 

Intro: F  C  Dm  G x2

F      C     Dm     G        F     C    Dm   G    
Brother,        you are my guiding star
F      C     Dm     G        F       C     G
Forever,        you roam, I won’t be far
Dm  G  Dm  G     E                  Am
I have so many things to learn from you
Dm G  Dm  G     E            Am
I was so lost until you came through
    F                   C    G   F   C and then back into F   C   Dm   G
And led me through the dark 

F      C     Dm      G           F     C     Dm   G
Brother,        come close don’t stray away
F         C  Dm        G        F           C         G
For I know,     you’ll turn and run from us some day
Dm       G   Dm       G        E          Am
Like you must, we all do, I’ve been there too
Dm    G  Dm         G       E            Am 
If it all, gets too real, I know how you feel
         F               C       G   F   C    and then back into F   C   Dm   G
And I’ll be your guiding light

F       C     E         Am
Världen är så stor, min bror
F           C         G
Den är så skrämmande stor
F      C         E          Am
När det blir för tungt, min bror
F         C           G
Lägger du tyngden på mig då?

(Roughly translates into:

The world is so big, my brother
It’s so frighteningly big
When things get too hard, my brother
Will you put the weight on me?)

F       C   Dm  G       F      C         Dm  G
Brother,      I haven’t always been near
F              C  Dm           G           F           C        G
There’s so much,     I’ve been through the last couple of years
Dm      G    Dm         G
You did grow, leaps and bounds
E               Am
With or without me
Dm     G  Dm    G          E               Am
Here I am, understand it’s where I want to be
            F               C     G   F   C   F   C   Dm   G
I’ll follow you, my guiding star

F  C  Dm  G
F  C  G


I took a shot at the picking pattern as well. Might be off here and there but sounds mostly right. 

Verse and chorus

   F          C          Dm         G
e----------------------------------------------------
B--------1----------1----------3---------0h1---------
G----0h2-------------------0h2----------------------- x3
D--3-------3-----2-------0-------0-------------------
A-------------3-------3----------------2-------------
E-----------------------------------3----------------

   F          C         G
e----------------------------------------------------
B--------1----------1-------0---------0--------------
G----0h2--------------------------------------------- 
D--3-------3-----2----0--------0---------------------
A-------------3-----------2--------2-----------------
E-----------------------3--------3-------------------
   
   Dm        G        Dm        G        E               Am
e------------------------------------------------------------------------
B--------3--------0---------3-------0--------0-------0-------1-------1---
G----0h2------------0---0h2-----------0--------1-------1-------2-------2-
D--0-------0----------0-------0------------2-------2-------2-------2----- x2
A--------------2------------------2------2-------2-------0-------0-------
E------------3------------------3----------------------------------------

  F             
e-----------------------------------------
B-------1---------1---------1---------1---
G---0h2---2---0h2---2---0h2---2---0h2-----
D-3---------3---------3---------3-------3- then C  G  F  C  before returning to
A----------------------------------------- verse picking pattern
E-----------------------------------------

The part sung in Swedish: 

   F          C          E       Am       F         C         G 
e-----------------------------------------------------------------------------
B--------1----------1--------0-------1----------1--------1--------0-------0---
G----0h2-----------------------1-------2----0h2---------------------0-------0-
D--3-------3-----2---------2-------2------3-------3---2-----------------------x2
A-------------3-------3--2-------0------------------3------3----2-------2-----
E-------------------------------------------------------------3-------3-------

Enjoy! 

            
            
Suggest correction
Creating personal tab
Creating personal tab
You can edit any tab online and save it as your Personal.

You can edit, replace or remove any tab part or add personal notes – all changes will be seen only by you.

Personal tabs can be accessed anytime from any device, even offline.
Learn more »
comments
print report bad tab
guest
You may want to rate the tab now too:
select rating
Wanna post a correction for this tab? Suggest correction