Oops, an error
Loading. Please wait.

Emmylou Tab

version 2
version 2

Whole song

24,369 views 78 this week
2 commentsread comments
1 2 3 4 5
x 11
add to favorites
launch autoscroll
font size
0
reset
how to read this tab
guitar tuner
Autoscroll
slow
fast
+/-
esc
set tempo
stop
Help us to improve Ultimate-Guitar.com Take our survey!
×
Author
Difficulty
Capo
intermediate
6th fret
Artist: First Aid Kit
Song: Emmylou
Tabbed by: GB
Rectified by: elgg
Tuning: Capo 6th fret

  C/G                                  Em
e|---------------|--------------------|-------------------|-------------------|
B|-------------1-|-------1------------|-------0---------0-|-------0-----------|
G|---------0-----|--------------0-----|-------------0-----|--------------0----|
D|----2-------2--|------0h2--------0--|-------2-------2---|-------2---------0-|
A|-3-------------|--3-----------------|-2-----------------|-2-----------------|
E|-------3-------|-----------3--------|----------0--------|----------0--------|

  Am                                 Fmaj7
e|-----------------|----------------|--------------------|--------------------|
B|-----1---------1-|-----1----------|----1------------1--|-----1-----------0--|
G|-----------2-----|-----------2----|-------------2------|------------2-------|
D|-----2-------2---|-----2------0h2-|----2----------2----|-----2---------0----|
A|-0---------------|--0-------------|--------------------|--------------------|
E|----------0------|--------0-------|-1--------1---------|-1-------1----------|
                                                                     oh the...

          C/G               Em                 Am
e|-----------------|------------------|--------------------|
B|-----1-----------|------0-----------|----1---------------|
G|------------0----|------------0-----|-----------2--------|
D|-----2---------0-|------2--------0--|----2---------2-----|
A|-3---------------|--2---------------|-0------------------|
E|---------3-------|----------0-------|--------0-----------|
                      bitter            winds         are   coming       

   In          and   Im  already      missing    the      summer

   Fmaj             C/G
e|-----------------|----------------------------------------------------------|
B|---1-------------|----------------------------------------------------------|
G|-----------2-----|----------------------------------------------------------|
D|---2----------0--|----------------------------------------------------------|
A|-----------------|----------------------------------------------------------|
E|-1--------1------|----------------------------------------------------------|
                    Stockholms... ect.... last line of verse: C X1-> Em X1-> G X2 ->

[Chorus]
  C/G                                        Fmaj7
e|---------------------|--------------------|-------------------|--------------------|
B|------1------------1-|-------1------------|-----1-------------|----1---------------|
G|--------------0------|--------------0-----|--------------2----|---------------2----|
D|------2----------2---|-------2----------0-|-----2-----------2-|----2-------------2-|
A|--3------------------|---3----------------|-------------------|--------------------|
E|------------3--------|-----------3--------|--1--------1-------|-1---------1--------|
       Ill be  your     Emmylou      and     Ill  be    your     June           if

  Am                                  G
e|----------------|------------------|---------------------|-------------------------|
B|----1-----------|-----1------------|-----0-------------0-|------0------------------|
G|-----------2----|-------------0----|-------------0-------|---------------0---------|
D|----2---------2-|-----2----------0-|-----0-----------0---|------0-------------0----|
A|-0--------------|--0---------------|---------------------|-------------------------|
E|---------0------|-----------0------|--3-------3----------|---3--------3------------|
   youll   be my   Graham  and my     Johnny                too.            No Im
 
C/G                                        Fmaj7
e|---------------------|--------------------|-------------------|--------------------|
B|------1------------1-|-------1------------|-----1-------------|----1---------------|
G|--------------0------|--------------0-----|--------------2----|---------------2----|
D|------2----------2---|-------2----------0-|-----2-----------2-|----2-------------2-|
A|--3------------------|---3----------------|-------------------|--------------------|
E|------------3--------|-----------3--------|--1--------1-------|-1---------1--------|
  not                     askin                       much of   you            Just
 
Am                    G                  C/G
e|--------------------|------------------|---------------------|--------------------|
B|-----1--------------|----0-------------|------1------------1-|------1-------------|
G|--------------0-----|-------------0----|--------------0------|--------------0-----|
D|-----2-----------0--|----0-----------0-|------2----------2---|------2----------2--|
A|-0------------------|------------------|--3------------------|--------------------|
E|-----------0--------|--3-------3-------|-----------3---------|---3-------3--------|
   sing        little   darlin  sing with  me

[Bridge]
Am                                     G       
e|-------------------|-----------------|---------------------|-----------------------|
B|----1------------1-|----1------------|----0--------------0-|----0------------------|
G|------------2------|------------0----|------------0--------|------------0----------|
D|----2----------2---|----2----------0-|----0-----------0----|----0-----------0------|
A|-0-----------------|-0---------------|---------------------|-----------------------|
E|---------0---------|---------0-------|-3--------3----------|-3------3--------------|
          And          yes          I   might                have          

  Fmaj7                                  C 
e|------------------|-------------------|------------------|---------------------|
B|----1-------------|----1--------------|-----1------------|------1--------------|
G|------------2-----|--------------2----|-------------0----|----------------0----|
D|----2-----------2-|----2------------0-|----0h2---------0-|-----0h2-----------2-|
A|------------------|-------------------|--3--------3------|--3-----------3------|
E|-1--------1-------|-1--------1--------|------------------|---------------------|
           Lied                     to    you                 ect...


************************************

| h  Hammer-on
| >  Accented note

************************************
Suggest correction
comments
print report bad tab
2 comments total.
0 reply
Sealmako 31 Jun 01, 2013 03:56 PM

Hah thanks for fixing that!

0 reply
DieGitarre 73 Oct 07, 2013 03:06 PM

It's almost perfect! Thanks so much!

guest
You may want to rate the tab now too:
select rating
Wanna post a correction for this tab? Suggest correction