Oops, an error
Loading. Please wait.

Ghost Town tab

4,796 views 9 this week
no commentswrite comment
1 2 3 4 5
x 5
add to favorites
×
Save as Personal and add changes to this tab that will be seen only by you. Learn more ›
×
You can save this tab as Personal to edit and correct it or add notes. All changes will be seen only by you. Learn more »
launch autoscroll
font size
0
reset
how to read this tab
guitar tuner
edit
Autoscroll
slow
fast
+/-
esc
set tempo
stop
Author
Difficulty
                                                     G H O S T   T O W N
                                                                                      
FIRST AID KIT
1ST VERSE

Am sus4       C add9    G               F  add6
 P I P               P I P              P I P           P I P
e-----------------------------------------------------------|
b---1---------1---------3--------1--------------------------|
g---2---------0---------0--------2--------------------------|
d-----0---------0---------0----3---0------------------------|
a-0---------3-----------------------------------------------|
e--------------------3--------------------------------------|

Am sus4       C add9    G               F
 P I P               P I P             P I P            P I P
e-----------------------------------------------------------|
b---1---------1---------3--------1--------------------------|
g---2---------0---------0--------2--------------------------|
d-----0---------0---------0----3---0------------------------|
a-0---------3-----------------------------------------------|
e--------------------3--------------------------------------|

Am              Am sus4        F                F add6
 P I P         P I P                   P I P            P I P
e-----------------------------------------------------------|
b---1---------1---------1--------1--------------------------|
g---2---------2---------2--------2--------------------------|
d-----2---------0----3----3--------0------------------------|
a-0---------0------------------0----------------------------|
e-----------------------------------------------------------|

Am              Am sus4       G         G
 P I P               P I P      P I P           P I P
e-----------------------------------------------------------|
b---1---------1---------3--------3--------------------------|
g---2---------2---------0--------0--------------------------|
d-----2---------0---------0--------0------------------------|
a-0---------0-----------------------------------------------|
e--------------------3---------3----------------------------|

Am                 Am sus4      F               F add6
 P I P              P I P       P I P           P I P
e-----------------------------------------------------------|
b---1---------1---------1--------1--------------------------|
g---2---------2---------2--------2--------------------------|
d-----2---------0----3----3--------0------------------------|
a-0---------0------------------0----------------------------|
e-----------------------------------------------------------|
Am                Am sus4           G     G
 P I P           P I P      P    P P
e-----------------------------------------------------------|
b---1---------1---------------------------------------------|
g---2---------2---------------------------------------------|
d-----2---------0-------------------------------------------|
a-0---------0-----------------------------------------------|
e--------------------3----3-3-------------------------------|

CHORUS

C                     C add9    F add6  Am sus4
 P I P                P I P            P I P            P I P
e-----------------------------------------------------------|
b---1---------1---------1--------1--------------------------|
g---0---------0---------2--------2--------------------------|
d-----2---------0----3----0--------0------------------------|
a-3---------3------------------0----------------------------|
e-----------------------------------------------------------|

F               Am sus4      C                  C
 P I P          P I P        P I P              P I P
e-----------------------------------------------------------|
b---1---------1---------1--------1--------------------------|
g---2---------2---------0--------0--------------------------|
d-3---3---------0---------2--------2------------------------|
a-----------0--------3---------3----------------------------|
e-----------------------------------------------------------|

C                    C add9            F add6   Am sus4
 P I P              P I P              P I P            P I P
e-----------------------------------------------------------|
b---1---------1---------1--------1--------------------------|
g---0---------0---------2--------2--------------------------|
d-----2---------0----3----0--------0------------------------|
a-3---------3------------------0----------------------------|
e-----------------------------------------------------------|

F                   Am sus4      C              C add9
 P I P            P I P                P I P            P I P
e-----------------------------------------------------------|
b---1---------1---------1--------1--------------------------|
g---2---------2---------0--------2--------------------------|
d-3---3---------0---------2--------0------------------------|
a-----------0--------3---------3----------------------------|
e-----------------------------------------------------------|

F add6        C         F add6  C
 P I P               P I P              P I P           P I P
e-----------------------------------------------------------|
b---1---------1---------1--------1--------------------------|
g---2---------0---------2--------0--------------------------|
d-3---0---------0----3----0--------0------------------------|
a-----------3------------------3----------------------------|
e-----------------------------------------------------------|

F add6       F/A                F/A             F add6
 P I P             P I P        P I P           P I P
e-----------------------------------------------------------|
b---1---------1---------1--------1--------------------------|
g---2---------2---------2--------2--------------------------|
d-3---3---------3---------3--------0------------------------|
a-----------0--------0---------0----------------------------|
e-----------------------------------------------------------|

C                 C                  C                  C
 P I P           P I P       P I P              P I P
e-----------------------------------------------------------|
b---1--------1---------1---------1--------------------------|
g---0--------0---------0---------0--------------------------|
d-----2--------2---------2---------0------------------------|
a-3-------3---------3----------3----------------------------|
e-----------------------------------------------------------|

2ND VERSE

F  add6      C add9     G               F add6
 P I P              P I P           P I P               P I P
e-----------------------------------------------------------|
b---1---------1---------3--------1--------------------------|
g---2---------0---------0--------2--------------------------|
d-3---0---------0---------0----3---0------------------------|
a-----------3-----------------------------------------------|
e--------------------3--------------------------------------|

Am sus4               C add9    G               F add6
 P I P                P I P             P I P           P I P
e-----------------------------------------------------------|
b---1---------1---------3--------1--------------------------|
g---2---------0---------0--------2--------------------------|
d-----0---------0---------0----3---0------------------------|
a-0---------3-----------------------------------------------|
e--------------------3--------------------------------------|

Am                 Am sus4      F               F add6
 P I P             P I P                P I P           P I P
e-----------------------------------------------------------|
b---1---------1---------1--------1--------------------------|
g---2---------2---------2--------2--------------------------|
d-----2---------0----3----3--------0------------------------|
a-0---------0------------------0----------------------------|
e-----------------------------------------------------------|

Am sus4     F/Aadd6      Am             Am sus4
 P I P             P I P                P I P           P I P
e-----------------------------------------------------------|
b---1---------1---------1--------1--------------------------|
g---2---------2---------2--------2--------------------------|
d-----0----3----0---------2--------0------------------------|
a-0------------------0---------0----------------------------|
e-----------------------------------------------------------|

  G
  P     P P
e-----------------------------------------------------------|
b-----------------------------------------------------------|
g-----------------------------------------------------------|
d-----------------------------------------------------------|
a-----------------------------------------------------------|
e-3--3-3----------------------------------------------------|

CHORUS

C                    C add9     F add6  Am sus4
 P I P              P I P       P I P           P I P
e-----------------------------------------------------------|
b---1---------1---------1--------1--------------------------|
g---0---------0---------2--------2--------------------------|
d-----2---------0----3----0--------0------------------------|
a-3---------3------------------0----------------------------|
e-----------------------------------------------------------|

F                    Am sus4    C               C
 P I P            P I P               P I P             P I P
e-----------------------------------------------------------|
b---1---------1---------1--------1--------------------------|
g---2---------2---------0--------0--------------------------|
d-3---3---------0---------2--------2------------------------|
a-----------0--------3---------3----------------------------|
e-----------------------------------------------------------|

C                     C add9    F add6  Am sus4
 P I P               P I P              P I P           P I P
e-----------------------------------------------------------|
b---1---------1---------1--------1--------------------------|
g---0---------0---------2--------2--------------------------|
d-----2---------0----3----0--------0------------------------|
a-3---------3------------------0----------------------------|
e-----------------------------------------------------------|

F                    Am sus4    C               C add9
 P I P               P I P              P I P           P I P
e-----------------------------------------------------------|
b---1---------1---------1--------1--------------------------|
g---2---------2---------0--------2--------------------------|
d-3---3---------0---------2--------0------------------------|
a-----------0--------3---------3----------------------------|
e-----------------------------------------------------------|

F add6         C                F add6  C
 P I P               P I P              I P             P I P
e-----------------------------------------------------------|
b---1---------1---------1--------1--------------------------|
g---2---------0---------2--------0--------------------------|
d-3---0---------0----3----0--------0------------------------|
a-----------3------------------3----------------------------|
e-----------------------------------------------------------|

F add6      F/A         F/A             F add6
 P I P             P I P        P I P           P I P
e-----------------------------------------------------------|
b---1---------1---------1--------1--------------------------|
g---2---------2---------2--------2--------------------------|
d-3---3---------3---------3--------0------------------------|
a-----------0--------0---------0----------------------------|
e-----------------------------------------------------------|

C                C                C                     C
 P I P          P I P     P I P         P I P
e-----------------------------------------------------------|
b---1--------1---------1---------1--------------------------|
g---0--------0---------0---------0--------------------------|
d-----2--------2---------2---------0------------------------|
a-3-------3---------3----------3----------------------------|
e-----------------------------------------------------------|


BRIDGE
  F               F/A add6      G               G
  P I P   P I P         P I P           P I P
e-----------------------------------------------------------|
b---1-------1----------3---------3--------------------------|
g---2-------2----------0---------0--------------------------|
d-3--3--------0----------0---------0------------------------|
a---------0-------------------------------------------------|
e--------------------3---------3----------------------------|

  C             Cadd9           Am              Am sus4
 P I P           P I P                  P I P           P I P
e-----------------------------------------------------------|
b---1--------1----------1---------1-------------------------|
g---0--------0----------2---------2-------------------------|
d-----2--------0----------2---------0-----------------------|
a-3-------3----------0---------0----------------------------|
e-----------------------------------------------------------|

  F               F/A add6      G               G
  P I P   P I P         P I P           P I P
e-----------------------------------------------------------|
b---1-------1----------3---------3--------------------------|
g---2-------2----------0---------0--------------------------|
d-3--3--------0----------0---------0------------------------|
a---------0-------------------------------------------------|
e--------------------3---------3----------------------------|

  C              Cadd9          Am              Am sus4
 P I P           P I P                  P I P           P I P
e-----------------------------------------------------------|
b---1--------1----------1---------1-------------------------|
g---0--------0----------2---------2-------------------------|
d-----2--------0----------2---------0-----------------------|
a-3-------3----------0---------0----------------------------|
e-----------------------------------------------------------|

  F               F/A add6      G
  P I P   P I P          P  P P
e-----------------------------------------------------------|
b---1-------1-----------------------------------------------|
g---2-------2-----------------------------------------------|
d-3-----------0---------------------------------------------|
a---------0-------------------------------------------------|
e--------------------3--3-3---------------------------------|

FINAL CHORUS

C                C                    F add6    Am sus4
 P I P          P I P         P I P             P I P
e-----------------------------------------------------------|
b---1---------1---------1--------1--------------------------|
g---0---------0---------2--------2--------------------------|
d-----2---------0----3----0--------0------------------------|
a-3---------3------------------0----------------------------|
e-----------------------------------------------------------|

F add6        Am sus4   C               C add9
 P I P              P I P               P I P           P I P
e-----------------------------------------------------------|
b---1---------1---------1--------1--------------------------|
g---2---------2---------0--------2--------------------------|
d-3---3---------0---------2--------0------------------------|
a-----------0--------3---------3----------------------------|
e-----------------------------------------------------------|

F add6        C         F add6  C
 P I P              P I P               P I P           P I P
e-----------------------------------------------------------|
b---1---------1---------1--------1--------------------------|
g---2---------0---------2--------0--------------------------|
d-3---0---------0----3----0--------0------------------------|
a-----------3------------------3----------------------------|
e-----------------------------------------------------------|

F/A add6                              C
 P I P                                STRUM
e-----------------------------------------------------------|
b---1----------------1--------------------------------------|
g---2----------------0--------------------------------------|
d-----3--------------2--------------------------------------|
a-0---------0--------3--------------------------------------|
e-----------------------------------------------------------|

            
            
Suggest correction
Creating personal tab
Creating personal tab
You can edit any tab online and save it as your Personal.

You can edit, replace or remove any tab part or add personal notes – all changes will be seen only by you.

Personal tabs can be accessed anytime from any device, even offline.
Learn more »
comments
print report bad tab
guest
You may want to rate the tab now too:
select rating
Wanna post a correction for this tab? Suggest correction