Oops, an error
Loading. Please wait.

Armageddon tab

version 1
version 1

Whole song

Interactive

1,699 views 1 this week
2 commentsread comments
1 2 3 4 5
2 more votes to show rating
add to favorites
×
Save as Personal and add changes to this tab that will be seen only by you. Learn more ›
×
You can save this tab as Personal to edit and correct it or add notes. All changes will be seen only by you. Learn more »
launch autoscroll
font size
0
reset
how to read this tab
guitar tuner
edit
Autoscroll
slow
fast
+/-
esc
set tempo
stop
Author
First Blood - Armageddon
Album       - Killafornia
tabbed by   - h8urlife

Tuning: C,G,C,F,A,D


Intro:



|----------------------------------|
|----------------------------------|
|----------------------------------|
|----------------------------------|
|-0--0--0--0--0-0--0--0--0--0--4-3-|
|-0--0--0--0--0-0--0--0--0--0--4-3-|



Then:



|-----------------------------------------------|-------------------------|
|-----------------------------------------------|-------------------------|
|-----------------------------------------------|-------------------------|
|-----------------------------------------------|-------------------------|
|-x\\\\\--0--0--0-00000000000000-0-0-0-0-00-0-0-|-0-0-0-0-0-4-0-0-1--4--3-|
|---------0--0--0-00000000000000-0-0-0-0-00-0-0-|-0-0-0-0-0-4-0-0-1--4--3-|



First fucking Blood!!!

http://www.firstbloodrules.com


Suggest correction
Creating personal tab
Creating personal tab
You can edit any tab online and save it as your Personal.

You can edit, replace or remove any tab part or add personal notes – all changes will be seen only by you.

Personal tabs can be accessed anytime from any device, even offline.
Learn more »
Give kudos to tab author, rate the tab!
1 2 3 4 5
comments
print report bad tab
2 comments total.
0 reply
Tafka 518 Jun 04, 2008 04:04 AM

The second guitar is missing.

+1 reply
I<3Hobos 351 Nov 20, 2008 12:27 PM

The second guitar is like

G|7-7-7-7-77-7-7-7-7-4-3
C|0-0-0-0-00-0-0-0-0-4-3



And it just goes up one fret each time i think.

guest
You may want to rate the tab now too:
select rating
Wanna post a correction for this tab? Suggest correction