Oops, an error
Loading. Please wait.

We Walk The Rain bass

19 views 1 this week
no commentswrite comment
1 2 3 4 5
3 more votes to show rating
add to favorites
×
Save as Personal and add changes to this tab that will be seen only by you. Learn more ›
×
You can save this tab as Personal to edit and correct it or add notes. All changes will be seen only by you. Learn more »
launch autoscroll
font size
0
reset
guitar tuner
edit
Autoscroll
slow
fast
+/-
esc
set tempo
stop
Author
Difficulty
Tabbed by: 6METAL6BASSIST6
E-mail: petergriffinav@gmail.com

Tuning: EADG

G|----------------------------------------------------------------|
D|----------------------------------------------------------------|
A|----------------------------------------------------------------|
E|----------------------------------------------------------------|

G|--------------------------------------------------------|
D|----------------------------------------5---3-----------|
A|------------------------------------------------5---3---|
E|--------------------------------------------------------|

0:09

G|----------------------------------------------------------------|
D|----------------------------------------------------------------|
A|5---------------5---------------5-----------5---5-------3-------|
E|----------------------------------------------------------------|

G|----------------------------------------------------------------|
D|----------------------------------------------------------------|
A|1-----------1---1---------------1-----------1---1-------3-------|
E|----------------------------------------------------------------|

G|----------------------------------------------------------------|
D|--------------------------------------------------------2-------|
A|5-----------5-------------------5-----------5---5---------------|
E|----------------5-----------------------------------------------|

G|----------------------------------------------------------------|
D|3-----------3-------------------3-----------3---3-------2-------|
A|----------------3-----------------------------------------------|
E|----------------------------------------------------------------|

0:25

G|----------------------------------------------------------------|
D|----------------------------------------------------------------|
A|5-----------5-------------------5---------------5-------3-------|
E|----------------5-----------------------------------------------|

G|----------------------------------------------------------------|
D|----------------------------------------------------------------|
A|1-----------1---1---------------1-----------1---1-------0-------|
E|----------------------------------------------------------------|

G|----------------------------------------------------------------|
D|----------------------------------------------------------------|
A|----------------------------------------------------------------|
E|3-----------3---3---------------3-----------3---3-------3-------|

G|----------------------------------------------------------------|
D|----------------------------------------7-------5---------------|
A|--------4---7-----------4---7-----------------------7-----------|
E|5---------------5---5-----------5-------------------------------|

0:41

G|----------------------------------------------------------------|
D|----------------------------------------------------------------|
A|5-------------------------------5-----------5---5-------3-------|
E|----------------------------------------------------------------|

G|----------------------------------------------------------------|
D|----------------------------------------------------------------|
A|1-----------1---1---------------1-----------1---1-------3-------|
E|----------------------------------------------------------------|

0:48

G|----------------------------------------------------------------|
D|----------------------------------------------------------------|
A|5-----------5-------------------5---------------5-------3-------|
E|----------------5-----------------------------------------------|

G|----------------------------------------------------------------|
D|----------------------------------------------------------------|
A|1-----------1---1---------------1-----------1---1-------3-------|
E|----------------------------------------------------------------|

G|----------------------------------------------------------------|
D|--------------------------------------------------------2-------|
A|5-----------5-------------------5---------------5---------------|
E|----------------5-----------------------------------------------|

G|----------------------------------------------------------------|
D|----3---------------------------3---------------3-------2-------|
A|----------------3-----------------------------------------------|
E|----------------------------------------------------------------|

1:05

G|----------------------------------------------------------------|
D|----------------------------------------------------------------|
A|5-----------5-------------------5---------------5-------3-------|
E|----------------5-----------------------------------------------|

G|----------------------------------------------------------------|
D|----------------------------------------------------------------|
A|1-----------1---1---------------1-----------1---1-------0-------|
E|----------------------------------------------------------------|

G|----------------------------------------------------------------|
D|----------------------------------------------------------------|
A|----------------------------------------------------------------|
E|3-----------3---3---------------3-----------3---3-------3-------|

G|----------------------------------------------------------------|
D|------------------------------------------------7---5-------3---|
A|--------4---7-----------4---7-----------------------------------|
E|5---------------5---5-----------5-------------------------------|

1:20

G|----------------------------------------------------------------|
D|----------------------------------------------------------------|
A|5---------------5-----------5---5-----------5---5---------------|
E|----------------------------------------------------------------|

G|----------------------------------------------------------------|
D|3-----------3---3---------------3-----------3---3-------3-------|
A|----------------------------------------------------------------|
E|----------------------------------------------------------------|

G|----------------------------------------------------------------|
D|5---------------------------------------------------------------|
A|----------------------------------------------------------------|
E|------------3---3---------------3-----------3---3-------3-------|

G|----------------------------------------------------------------|
D|----------------------------------------7-------5---------------|
A|--------4---7-----------4---7-----------------------7-----------|
E|5---------------5---5-----------5-------------------------------|

1:35

G|----------------------------------------------------------------|
D|----------------------------------------------------------------|
A|5---------------5---------------5---------------5-------3-------|
E|----------------------------------------------------------------|

G|----------------------------------------------------------------|
D|----------------------------------------------------------------|
A|1-----------1-------------------1---------------1-------3-------|
E|----------------1---------------------------1-------------------|

G|----------------------------------------------------------------|
D|--------------------------------------------------------2-------|
A|5-----------5-------------------5---------------5---------------|
E|----------------5-----------------------------------------------|

G|----------------------------------------------------------------|
D|3-----------3-------------------3---------------3-------2-------|
A|----------------3-----------------------------------------------|
E|----------------------------------------------------------------|

1:51

G|----------------------------------------------------------------|
D|----------------------------------------------------------------|
A|5-----------5-------------------5---------------5-------3-------|
E|----------------5---------------------------5-------------------|

G|----------------------------------------------------------------|
D|----------------------------------------------------------------|
A|1-----------1---1---------------1-----------1---1-------0-------|
E|----------------------------------------------------------------|

G|----------------------------------------------------------------|
D|----------------------------------------------------------------|
A|----------------------------------------------------------------|
E|3-----------3---3---------------3-----------3---3-------3-------|

G|----------------------------------------------------------------|
D|----------------------------------------7-------5---------------|
A|--------4---7-----------4---7-----------------------7-----------|
E|5---------------5---5-----------5-------------------------------|

2:06

G|----------------------------------------------------------------|
D|----------------------------------------------------------------|
A|5---------------5-----------5---5-----------5---5-------3-------|
E|----------------------------------------------------------------|

G|----------------------------------------------------------------|
D|3-----------3---3---------------3-----------3---3-------3-------|
A|----------------------------------------------------------------|
E|----------------------------------------------------------------|

G|----------------------------------------------------------------|
D|5---------------------------------------------------------------|
A|----------------------------------------------------------------|
E|------------3---3---------------3-----------3---3-------3-------|

G|----------------------------------------------------------------|
D|----------------------------------------7-------5---------------|
A|--------4---7-----------4---7-----------------------7-----------|
E|5---------------5---5-----------5-------------------------------|

2:22

G|----------------------------------------------------------------|
D|----------------------------------------------------------------|
A|5---------------5---------------5---------------5-------3-------|
E|----------------------------------------------------------------|

G|----------------------------------------------------------------|
D|----------------------------------------------------------------|
A|1-----------1---1---------------1-----------1---1-------3-------|
E|----------------------------------------------------------------|

G|----------------------------------------------------------------|
D|----------------------------------------------------------------|
A|5-----------5---5---------------5-----------5---5-------3-------|
E|----------------------------------------------------------------|

G|----------------------------------------------------------------|
D|----------------------------------------------------------------|
A|1-----------1---1---------------1-----------1---1-------3-------|
E|----------------------------------------------------------------|

G|--------------------------------|
D|--------------------------------|
A|--5-----------------------------|
E|--------------------------------|

            
            
Suggest correction
Creating personal tab
Creating personal tab
You can edit any tab online and save it as your Personal.

You can edit, replace or remove any tab part or add personal notes – all changes will be seen only by you.

Personal tabs can be accessed anytime from any device, even offline.
Learn more »
Give kudos to tab author, rate the tab!
1 2 3 4 5
comments
print report bad tab
guest
You may want to rate the tab now too:
select rating
Wanna post a correction for this tab? Suggest correction