Oops, an error
Loading. Please wait.

Night Light tab

4 views 1 this week
no commentswrite comment
1 2 3 4 5
3 more votes to show rating
add to favorites
×
Save as Personal and add changes to this tab that will be seen only by you. Learn more ›
×
You can save this tab as Personal to edit and correct it or add notes. All changes will be seen only by you. Learn more »
launch autoscroll
font size
0
reset
how to read this tab
guitar tuner
edit
Autoscroll
slow
fast
+/-
esc
set tempo
stop
https://firstthursday.bandcamp.com/track/night-light-2

[Intro]
E|-------------------------------------------------------------------------------------------------|
B|-----1-----1-----1-----1-----1-----1-----1-----1-----1-----1-----1-----1-----1-----1-----1-----1-|
G|---2-----2-----2-----2-----0-----0-----0-----0-----2-----2-----2-----2-----0-----0-----0-----0---|
D|-3-----3-----3-----3-----------------------------3-----3-----3-----3-----------------------------|
A|-------------------------3-----3-----3-----3-----------------------------3-----3-----3-----3-----|
E|-------------------------------------------------------------------------------------------------|

E|-------------------------------------------------------------------------------------------------|
B|-----1-----1-----1-----1-----1-----1-----1-----1-----1-----1-----1-----1-----1-----1-----1-----1-|
G|---2-----2-----2-----2-----0-----0-----0-----0-----2-----2-----2-----2-----0-----0-----0-----0---|
D|-------------------------------------------------------------------------------------------------|
A|-0-----0-----0-----0-----3-----3-----3-----3-----0-----0-----0-----0-----3-----3-----3-----3-----|
E|-------------------------------------------------------------------------------------------------|

[Verse 1]
E|-------------------------------------------------------------------------------------------------|
B|-----1-----1-----1-----1-----1-----1-----1-----1-----1-----1-----1-----1-----1-----1-----1-----1-|
G|---2-----2-----2-----2-----0-----0-----0-----0-----2-----2-----2-----2-----0-----0-----0-----0---|
D|-3-----3-----3-----3-----------------------------3-----3-----3-----3-----------------------------|
A|-------------------------3-----3-----3-----3-----------------------------3-----3-----3-----3-----|
E|-------------------------------------------------------------------------------------------------|
   Saw you stumble down the back steps of the house, you had starlight in your eyes

E|-------------------------------------------------------------------------------------------------|
B|-----1-----1-----1-----1-----1-----1-----1-----1-----1-----1-----1-----1-----1-----1-----1-----1-|
G|---2-----2-----2-----2-----0-----0-----0-----0-----2-----2-----2-----2-----0-----0-----0-----0---|
D|-------------------------------------------------------------------------------------------------|
A|-0-----0-----0-----0-----3-----3-----3-----3-----0-----0-----0-----0-----3-----3-----3-----3-----|
E|-------------------------------------------------------------------------------------------------|
   When you walked across the lawn you were smiling, and then to my surprise

E|-------------------------------------------------------------------------------------------------|
B|-----1-----1-----1-----1-----1-----1-----1-----1-----1-----1-----1-----1-----1-----1-----1-----1-|
G|---2-----2-----2-----2-----0-----0-----0-----0-----2-----2-----2-----2-----0-----0-----0-----0---|
D|-3-----3-----3-----3-----------------------------3-----3-----3-----3-----------------------------|
A|-------------------------3-----3-----3-----3-----------------------------3-----3-----3-----3-----|
E|-------------------------------------------------------------------------------------------------|
   I caught your eyes and they lit up my mind, had me fluttering inside

E|-------------------------------------------------------------------------------------------------|
B|-----1-----1-----1-----1-----1-----1-----1-----1-----1-----1-----1-----1-----1-----1-----1-----1-|
G|---2-----2-----2-----2-----0-----0-----0-----0-----2-----2-----2-----2-----0-----0-----0-----0---|
D|-------------------------------------------------------------------------------------------------|
A|-0-----0-----0-----0-----3-----3-----3-----3-----0-----0-----0-----0-----3-----3-----3-----3-----|
E|-------------------------------------------------------------------------------------------------|
   You floated over and my legs went numb, had to lean against your side

[Chorus]
F             C
 So take me away from here
E           Am
 Into the stars my dear
F                     C
 Somewhere that your eyes can shine
E           Am
 And be my only light
F            C
 So take me far from here
E               Am
 And send away all my fears
F                C
 Somewhere I can forget life
E             Am
 And lose myself

[Interlude]
E|-------------------------------------------------------------------------------------------------|
B|-----1-----1-----1-----1-----1-----1-----1-----1-----1-----1-----1-----1-----1-----1-----1-----1-|
G|---2-----2-----2-----2-----0-----0-----0-----0-----2-----2-----2-----2-----0-----0-----0-----0---|
D|-3-----3-----3-----3-----------------------------3-----3-----3-----3-----------------------------|
A|-------------------------3-----3-----3-----3-----------------------------3-----3-----3-----3-----|
E|-------------------------------------------------------------------------------------------------|

E|-------------------------------------------------------------------------------------------------|
B|-----1-----1-----1-----1-----1-----1-----1-----1-----1-----1-----1-----1-----1-----1-----1-----1-|
G|---2-----2-----2-----2-----0-----0-----0-----0-----2-----2-----2-----2-----0-----0-----0-----0---|
D|-------------------------------------------------------------------------------------------------|
A|-0-----0-----0-----0-----3-----3-----3-----3-----0-----0-----0-----0-----3-----3-----3-----3-----|
E|-------------------------------------------------------------------------------------------------|

[Verse 2]
E|-------------------------------------------------------------------------------------------------|
B|-----1-----1-----1-----1-----1-----1-----1-----1-----1-----1-----1-----1-----1-----1-----1-----1-|
G|---2-----2-----2-----2-----0-----0-----0-----0-----2-----2-----2-----2-----0-----0-----0-----0---|
D|-3-----3-----3-----3-----------------------------3-----3-----3-----3-----------------------------|
A|-------------------------3-----3-----3-----3-----------------------------3-----3-----3-----3-----|
E|-------------------------------------------------------------------------------------------------|
   I woke up to the sound of you smiling, and your hands were on my skin

E|-------------------------------------------------------------------------------------------------|
B|-----1-----1-----1-----1-----1-----1-----1-----1-----1-----1-----1-----1-----1-----1-----1-----1-|
G|---2-----2-----2-----2-----0-----0-----0-----0-----2-----2-----2-----2-----0-----0-----0-----0---|
D|-------------------------------------------------------------------------------------------------|
A|-0-----0-----0-----0-----3-----3-----3-----3-----0-----0-----0-----0-----3-----3-----3-----3-----|
E|-------------------------------------------------------------------------------------------------|
  You brushed the hair out of your face and we would never be the same again

E|-------------------------------------------------------------------------------------------------|
B|-----1-----1-----1-----1-----1-----1-----1-----1-----1-----1-----1-----1-----1-----1-----1-----1-|
G|---2-----2-----2-----2-----0-----0-----0-----0-----2-----2-----2-----2-----0-----0-----0-----0---|
D|-3-----3-----3-----3-----------------------------3-----3-----3-----3-----------------------------|
A|-------------------------3-----3-----3-----3-----------------------------3-----3-----3-----3-----|
E|-------------------------------------------------------------------------------------------------|
  You opened up your mouth to say something, but I politely refused

E|-------------------------------------------------------------------------------------------------|
B|-----1-----1-----1-----1-----1-----1-----1-----1-----1-----1-----1-----1-----1-----1-----1-----1-|
G|---2-----2-----2-----2-----0-----0-----0-----0-----2-----2-----2-----2-----0-----0-----0-----0---|
D|-------------------------------------------------------------------------------------------------|
A|-0-----0-----0-----0-----3-----3-----3-----3-----0-----0-----0-----0-----3-----3-----3-----3-----|
E|-------------------------------------------------------------------------------------------------|
   You didn't have to say a single word to me, no we both knew

[Chorus]
F             C
 So take me away from here
E           Am
 Into the stars my dear
F                     C
 Somewhere that your eyes can shine
E           Am
 And be my only light
F            C
 So take me far from here
E               Am
 And send away all my fears
F                C
 Somewhere I can forget life
E             Am
 And lose myself
F            C 
 So take me far from here
E               Am 
 And send away all my fears
F                C
 Somewhere I can forget life
E             Am
 And lose myself

[Outro]
E Am E Am
E Am E Am

            
            
Suggest correction
Creating personal tab
Creating personal tab
You can edit any tab online and save it as your Personal.

You can edit, replace or remove any tab part or add personal notes – all changes will be seen only by you.

Personal tabs can be accessed anytime from any device, even offline.
Learn more »
Give kudos to tab author, rate the tab!
1 2 3 4 5
comments
print report bad tab
guest
You may want to rate the tab now too:
select rating
Wanna post a correction for this tab? Suggest correction