Oops, an error
Loading. Please wait.

Marliese Bass Tab

807 views 6 this week
no commentswrite comment
1 2 3 4 5
please rate
add to favorites
launch autoscroll
font size
0
reset
guitar tuner
Tab Pro tools
  • play this tab
  • loop segment
  • change instrument
  • show fretboard
  • metronome
×
Best way to learn
"Marliese"
Autoscroll
slow
fast
+/-
esc
set tempo
stop
Contributor
-------------------------------------------------------------------------------
                             Marliese - Fischer-Z
-------------------------------------------------------------------------------
Tabbed by: Peter Lok
E-mail:    peter.lok@12move.nl

Tuning:    EADG

G|----------------------------------------------------------------|
D|----------------------------------------------------------------|
A|----------------------------------------------------------------|
E|3-------3-------3-------3------/3-------3-------3-------3-------|

G|----------------|
D|----------------|
A|----------------|
E|3-------33333333|

G|----------------------------------------------------------------|
D|----------------------------------------------------------------|
A|3333333355555555--------------253333333355555555--------------25|
E|----------------33333333333335------------------33333333333335--|

G|----------------------45--------|
D|------------------4557--5-------|
A|333333333333333357--------------|
E|--------------------------------|

G|------------4------7-7------5-5-------------4------7-7------5-5-|
D|555555555555-7545-5---5--------4555555555555-7545-5---5--------4|
A|-------------------------7-7-----------------------------7-7----|
E|----------------------------------------------------------------|

G|------------4------7-7------5-5-------------4------7-7------5-5-|
D|555555555555-7545-5---5--------4555555555555-7545-5---5--------4|
A|-------------------------7-7-----------------------------7-7----|
E|----------------------------------------------------------------|

G|------------------------------------------------|
D|------------------------------------------------|
A|------------------------------------------------|
E|3-------3-------3-------3-------3-------3-------|

G|------------------------------------------------|
D|------------------------------------------------|
A|------------------------------------------------|
E|3-------3-------3-------3-------3-------33333333|

G|----------------------------------------------------------------|
D|----------------------------------------------------------------|
A|3333333355555555--------------253333333355555555--------------25|
E|----------------33333333333335------------------33333333333335--|

G|----------------------45--------|
D|------------------4557--5-------|
A|333333333333333357--------------|
E|--------------------------------|

G|------------4------7-7------5-5-------------4------7-7------5-5-|
D|555555555555-7545-5---5--------4555555555555-7545-5---5--------4|
A|-------------------------7-7-----------------------------7-7----|
E|----------------------------------------------------------------|

G|------------4------7-7------5-5-------------4------7-7------5-5-|
D|555555555555-7545-5---5--------4555555555555-7545-5---5--------4|
A|-------------------------7-7-----------------------------7-7----|
E|----------------------------------------------------------------|

G|----------------------------------------------------------------|
D|----------------------------------------------------------------|
A|3-2-----2-----------2-3-5-3-2---3-2-----2-----------2-3-5-3-2---|
E|----5-2---5-3-2-3-5-----------5-----5-2---5-3-2-3-5-----------5-|

G|----------------------------------------------------------------|
D|----------------------------------------------------------------|
A|3-2-----2-----------2-3-5-3-2---3-2-----2-----------2-3-5-3-2---|
E|----5-2---5-3-2-3-5-----------5-----5-2---5-3-2-3-5-----------5-|

G|--------------------------------|
D|--------------------------------|
A|3-2-----2-----------2-3-5-3-2---|
E|----5-2---5-3-2-3-5-----------5-|

G|------------4------7-7------5-5-------------4------7-7------5-5-|
D|555555555555-7545-5---5--------4555555555555-7545-5---5--------4|
A|-------------------------7-7-----------------------------7-7----|
E|----------------------------------------------------------------|

G|------------4------7-7------5-5-------------4------7-7------5-5-|
D|555555555555-7545-5---5--------4555555555555-7545-5---5--------4|
A|-------------------------7-7-----------------------------7-7----|
E|----------------------------------------------------------------|

G|------------------------------------------------|
D|------------------------------------------------|
A|------------------------------------------------|
E|3-------3-------3-------3-------3-------3-------|

G|------------------------------------------------|
D|------------------------------------------------|
A|------------------------------------------------|
E|3-------3-------3-------3-------3-------33333333|

G|----------------------------------------------------------------|
D|----------------------------------------------------------------|
A|3333333355555555--------------253333333355555555--------------25|
E|----------------33333333333335------------------33333333333335--|

G|----------------------45--------|
D|------------------4557--5-------|
A|333333333333333357--------------|
E|--------------------------------|

G|------------4------7-7------5-5-------------4------7-7------5-5-|
D|555555555555-7545-5---5--------4555555555555-7545-5---5--------4|
A|-------------------------7-7-----------------------------7-7----|
E|----------------------------------------------------------------|

Fade out


| /  slide up
| \  slide down
| h  hammer-on
| p  pull-off
| ~  vibrato
| +  harmonic
| x  Mute note
===============================================================================
comments
We did not receive enough feedback on this tab! Please rate:
print report bad tab
1 2 3 4 5
I want to post or [tab]
guest
You may want to rate the tab now too:
select rating
Please do not post tabs as comments. Select "correction" instead!