Oops, an error
Loading. Please wait.

Barbarella tab

154 views 1 this week
no commentswrite comment
1 2 3 4 5
2 more votes to show rating
add to favorites
×
Save as Personal and add changes to this tab that will be seen only by you. Learn more ›
×
You can save this tab as Personal to edit and correct it or add notes. All changes will be seen only by you. Learn more »
launch autoscroll
font size
0
reset
how to read this tab
guitar tuner
edit
Autoscroll
slow
fast
+/-
esc
set tempo
stop
Author
Tempo: around 165 BPM


[Intro]

e|---------------------------------------------------------------------------|
B|---------------------------------------------------------------------------|
G|--8-8-8-8---6--6--6-/8-8-8---3--3--3-/8-8-8---6--6--6-/8-8-8---------------|
D|--x-x-x-x---x--x--x-/x-x-x---x--x--x-/x-x-x---x--x--x-/x-x-x---6--6--------|
A|--6-6-6-6---4--4--4-/6-6-6---1--1--1-/6-6-6---4--4--4-/6-6-6---7--7--------|
E|--7-7-7-7---5--5--5-/7-7-7---2--2--2-/7-7-7---5--5--5-/7-7-7---------------|

                                         PM--------------|     
e|----------------------------------0-0-0------------------------------------|
B|----------------------------------0-0-0------------------------------------|
G|--8-8-8-8---6--6--6-/8-8-8---3-3--1-1-1--1-1-1-1-1-1-1-1-/8-8-8-8-8-8-8-8--|
D|--x-x-x-x---x--x--x-/x-x-x---x-x--2-2-2--2-2-2-2-2-2-2-2-------------------|
A|--6-6-6-6---4--4--4-/6-6-6---1-1--2-2-2------------------------------------|
E|--7-7-7-7---5--5--5-/7-7-7---2-2--0-0-0------------------------------------|
                        

[Verse]   
       
e|---------------------------------------------------------------------------|
B|---------------------------------------------------------------------------|
G|-8-8-8-8-8-8-8-8-8--8-8-8-8-8-8-8-8-8--8-8-8-8-8-8-8-8-8--8-8-8-8-8-8-x-x--|
D|-x-x-x-x-x-x-x-x-x--x-x-x-x-x-x-x-x-x--x-x-x-x-x-x-x-x-x--x-x-x-x-x-x-x-x--|
A|-6-6-6-6-6-6-6-6-6--6-6-6-6-6-6-6-6-6--6-6-6-6-6-6-6-6-6--6-6-6-6-6-6-x-x--|
E|-7-7-7-7-7-7-7-5-5--5-5-5-5-5-5-5-7-7--7-7-7-7-7-7-7-5-5--5-5-5-5-5-5-x-x--|

e|---------------------------------------------------------------------------|
B|---------------------------------------------------------------------------|
G|--------------------------------------------------------------10-10-10-----|
D|-2--2-2-/11-11-11-------------------2--2-2-/11-11-11------x-x-x--x--x------|
A|-2--2-2----------10-10-10-----------2--2-2----------10-10-x-x-8--8--8------|
E|-0--0-0-------------------12-12-12--0--0-0----------------x-x-9--9--9------|

e|---------------------------------------------------------------------------|
B|---------------------------------------------------------------------------|
G|--8-8-8-8---6--6--6/8-8-8---3--3--3-/8-8-8---6--6--6-/8-8-8---10-10-10-----|
D|--x-x-x-x---x--x--x/x-x-x---x--x--x-/x-x-x---x--x--x-/x-x-x---x--x--x------|
A|--6-6-6-6---4--4--4/6-6-6---1--1--1-/6-6-6---4--4--4-/6-6-6---8--8--8------|
E|--7-7-7-7---5--5--5/7-7-7---2--2--2-/7-7-7---5--5--5-/7-7-7---9--9--9------|

                                         PM--------------|     
e|---------------------------------0-0-0-------------------------------------|
B|---------------------------------0-0-0--------------------4---4---4---4----|
G|--8-8-8-8---6--6--6/8-8-8---3-3--1-1-1--1-1-1-1-1-1-1-1-4---4---4---4------|
D|--x-x-x-x---x--x--x/x-x-x---x-x--2-2-2--2-2-2-2-2-2-2-2--------------------|
A|--6-6-6-6---4--4--4/6-6-6---1-1--2-2-2-------------------------------------|
E|--7-7-7-7---5--5--5/7-7-7---2-2--0-0-0-------------------------------------|


[Chorus]

e|------------------------------------------------------------------------------|
B|------------------------------------------------------------------------------|
G|-------------------------------------11-13---1010101010101010101010-----------|      
D|--9-9-9-9--11-11-11-11--13-13-13-13--x--x----x-x-x-x-x-x-x-x-x-x-x------------| 
A|--x-x-x-x--x--x--x--x---x--x--x--x---9--11---8-8-8-8-8-8-8-8-8-8-8-8-8-8------|
E|--7-7-7-7--9--9--9--9---11-11-11-11--------------------------------------9\---|

e|------------------------------------------------------------------------------|
B|------------------------------------------------------------------------------|
G|-------------------------------------11-13---4-4-4-4-6-6-6-6-8-8-8-8h9p8-6----|      
D|--9-9-9-9--11-11-11-11--13-13-13-13--x--x----x-x-x-x-x-x-x-x-x-x-x-------6----| 
A|--x-x-x-x--x--x--x--x---x--x--x--x---9--11---2-2-2-2-4-4-4-4-6-6-6-------6----|
E|--7-7-7-7--9--9--9--9---11-11-11-11-------------------------------------------|

e|-------------------------11--11--11----------------------------------------|
B|----------------7~~~-7/12--12--12--12\\----------------7~~~-----5--5--5----|
G|-4--4-4/5/6/7/8--------------------------4--4-4/5/6/7/8------3/4--4--4--4\\|
D|---------------------------------------------------------------------------|
A|---------------------------------------------------------------------------|
E|---------------------------------------------------------------------------|

e|-------------------------11--11--11----------------------------------------|
B|----------------7~~~-7/12--12--12--12\\--------------7-7-7------------7-7-7| 
G|-4--4-4/5/6/7/8--------------------------4-4/5/6/7/8-------4-4/5/6/7/8-----|   
D|---------------------------------------------------------------------------| 
A|---------------------------------------------------------------------------|
E|---------------------------------------------------------------------------|

e|-------------------------11--11--11----------------------------------------|
B|----------------7~~~-7/12--12--12--12\\--------------7-7-7------------7-7--|
G|-4--4-4/5/6/7/8--------------------------4-4/5/6/7/8-------4-4/5/6/7/8---8/|
D|---------------------------------------------------------------------------|
A|---------------------------------------------------------------------------|
E|---------------------------------------------------------------------------|

  PM---------------------------------------------|  
e|----------------------------------------------------0------------------------|
B|----4--4---2--2---4--4--------4--4---2--2---4--4----0---4--4---2--2---4--4---|
G|-\4----------------------3--3-----------------------1------------------------|
D|----------------------------------------------------2----------------------3~|
A|----------------------------------------------------2------------------------|
E|----------------------------------------------------0------------------------|

    Let Ring....                               
e|----0-0-0--------------------------------------------------------------------|
B|----0-0-0--------------------------------------------------------------------|
G|----1-1-1-1-1-1-1-1-1-1b-1-1-1-1-1-1-----------------------------------------|
D|----2-2-2--------------------------------------------------------------------|
A|----2-2-2--------------------------------------------------------------------|
E|----0-0-0--------------------------------------------------------------------|


[Verse]

e|---------------------------------------------------------------------------|
B|---------------------------------------------------------------------------|
G|--8-8-8-8---6--6--6/8-8-8---3--3--3/8-8-8---6--6--6/8-8-8---13-13-13-------|   (heavy-ass reverb)
D|--x-x-x-x---x--x--x/x-x-x---x--x--x/x-x-x---x--x--x/x-x-x---x--x--x--------|
A|--6-6-6-6---4--4--4/6-6-6---1--1--1/6-6-6---4--4--4/6-6-6---11-11-11-------|
E|--7-7-7-7---5--5--5/7-7-7---2--2--2/7-7-7---5--5--5/7-7-7------------------|

e|---------------------------------0-0-0-------------------------------------|
B|---------------------------------0-0-0-------------------------------------|
G|--8-8-8-8---6--6--6/8-8-8---3-3--1-1-1--1-1-1-1-1-1-1-1b~~~-----9--9-------|
D|--x-x-x-x---x--x--x/x-x-x---x-x--2-2-2---------------------/6---9--9-------|
A|--6-6-6-6---4--4--4/6-6-6---1-1--2-2-2--------------------------x--x-------|
E|--7-7-7-7---5--5--5/7-7-7---2-2--0-0-0--------------------------7--7-------|


[Chorus]

e|------------------------------------------------------------------------------|
B|------------------------------------------------------------------------------|
G|-------------------------------------11-13---1010101010101010101010-----------|      
D|--9-9-9-9--11-11-11-11--13-13-13-13--x--x----x-x-x-x-x-x-x-x-x-x-x------------| 
A|--x-x-x-x--x--x--x--x---x--x--x--x---9--11---8-8-8-8-8-8-8-8-8-8-8-8-8-8------|
E|--7-7-7-7--9--9--9--9---11-11-11-11--------------------------------------9\---|

e|------------------------------------------------------------------------------|
B|------------------------------------------------------------------------------|
G|-------------------------------------11-13---4-4-4-4-6-6-6-6-8-8-8-8h9p8-6----|   repeat last 2 sections   
D|--9-9-9-9--11-11-11-11--13-13-13-13--x--x----x-x-x-x-x-x-x-x-x-x-x-------6----| without the last twiddly bit
A|--x-x-x-x--x--x--x--x---x--x--x--x---9--11---2-2-2-2-4-4-4-4-6-6-6-------6----|
E|--7-7-7-7--9--9--9--9---11-11-11-11-------------------------------------------|


[Verse]

e|---------------------------------------------------------------------------|
B|---------------------------------------------------------------------------|
G|--8-8-8-8---6--6--6/8-8-8---3--3--3/8-8-8---6--6--6/8-8-8------------------|
D|--x-x-x-x---x--x--x/x-x-x---x--x--x/x-x-x---x--x--x/x-x-x---6--6-----------|
A|--6-6-6-6---4--4--4/6-6-6---1--1--1/6-6-6---4--4--4/6-6-6---7--7-----------|
E|--7-7-7-7---5--5--5/7-7-7---2--2--2/7-7-7---5--5--5/7-7-7------------------|

e|---------------------------------------------------------------------------|
B|---------------------------------------------------------------------------|
G|--8-8-8-8---6--6--6/8-8-8---3-3-3-3~-1-1-1-1-1-x-1b-1-1-1-1-1-1-1----------|
D|--x-x-x-x---x--x--x/x-x-x---x-x-x-x~-2-2-2-2-2------2-2-2-2-2-2-2----------|
A|--6-6-6-6---4--4--4/6-6-6---1-1-1-1~-2-2-2-2-2------2-2-2-2-2-2-2----------|
E|--7-7-7-7---5--5--5/7-7-7---2-2-2-2~-0-0-0-0-0------0-0-0-0-0-0-0----------|

e|---------------------------------------------------------------------------|
B|---------------------------------------------------------------------------|
G|--8-8-8-8---6--6--6/8-8-8---13-13-13-13\8-8-8--6-6-6-6/8-8-8---3-3---------|
D|--x-x-x-x---x--x--x/x-x-x---x--x--x--x-\x-x-x--x-x-x-x/x-x-x---x-x---------|
A|--6-6-6-6---4--4--4/6-6-6---11-11-11-11\6-6-6--4-4-4-4/6-6-6---1-1---------|
E|---------------------------------------------------------------------------|


[Solo]

    Let Ring....                               
e|----0-0-0--------------------------------------------------------------------|
B|----0-0-0-0-0-0--2-2-2-2--4-4-4-4--7-7-7-7---------------------------7-7-7-7/|   
G|----1-1-1----------------------------------4-4-4-4--6-6-6-6--8-8-8-8---------|
D|----2-2-2--------------------------------------------------------------------|
A|----2-2-2--------------------------------------------------------------------|
E|----0-0-0--------------------------------------------------------------------|


e|-------------------------------------------14----14----14----------------------------|
B|-/9-9-9-9-9/12-12-12-12-12/14-14-14-14-h16----16----16----16-pb16-16-16-16-16-16-16--|
G|-------------------------------------------------------------------------------------|
D|-------------------------------------------------------------------------------------|
A|-------------------------------------------------------------------------------------|
E|-------------------------------------------------------------------------------------|


[Chorus]

e|------------------------------------------------------------------------------|
B|------------------------------------------------------------------------------|
G|-------------------------------------11-13---1010101010101010101010-----------|      
D|--9-9-9-9--11-11-11-11--13-13-13-13--x--x----x-x-x-x-x-x-x-x-x-x-x------------| 
A|--x-x-x-x--x--x--x--x---x--x--x--x---9--11---8-8-8-8-8-8-8-8-8-8-8-8-8-8------|
E|--7-7-7-7--9--9--9--9---11-11-11-11--------------------------------------9\---|

e|------------------------------------------------------------------------------|
B|------------------------------------------------------------------------------|
G|-------------------------------------11-13---4-4-4-4-6-6-6-6-8-8-8-8h9p8-6----|      
D|--9-9-9-9--11-11-11-11--13-13-13-13--x--x----x-x-x-x-x-x-x-x-x-x-x-------6----| 
A|--x-x-x-x--x--x--x--x---x--x--x--x---9--11---2-2-2-2-4-4-4-4-6-6-6-------6----|
E|--7-7-7-7--9--9--9--9---11-11-11-11-------------------------------------------|

                                 repeat x2

[Outro]

e|----------------------------------------------------------------------------|
B|----------------------------------------------------------------------------|
G|------------------------------------3--3-3----------------------------------|
D|-2--2-2-/11-11-11-------------------x--x-x-/13-13-13------------------------|
A|-2--2-2----------10-10-10-----------1--1-1-----------13-13-13---------------|
E|-0--0-0------------------12-12-12---2--2-2--------------------14-14-14------|

                                                                 Let Ring...
e|---------------------------------------------------------------------------|
B|----------------------------11/-15-15-15-15-15-15-15-15-15-15-15-15--------|
G|----------------------------x---x--x--x--x--x--x--x--x--x--x--x--x---------|
D|----------------------------9/--13-13-13-13-13-13-13-13-13-13-13-13--------|
A|-----13----13----13----13--------------------------------------------------|
E|--14----14----14----14-----------------------------------------------------|

                                                    Let Ring... 
e|----------------------------------------------------0----------------------|
B|----4--4---2--2---4--4--------4--4---2--2---4--4----0----------------------|
G|-\4----------------------3--3-----------------------1----------------------|
D|----------------------------------------------------2----------------------|
A|----------------------------------------------------2----------------------|
E|----------------------------------------------------0----------------------|



The End! This is my first tab, so I hope you like it. Feel free to leave comments and criticisms.


************************************

| x   Dead note
| h   Hammer-on
| p   Pull-off
| b   Bend
| pb  Pre-bend
| /   Slide up
| \   Slide down
| ~   Vibrato
| PM  Palm mute

************************************

            
            
Suggest correction
Creating personal tab
Creating personal tab
You can edit any tab online and save it as your Personal.

You can edit, replace or remove any tab part or add personal notes – all changes will be seen only by you.

Personal tabs can be accessed anytime from any device, even offline.
Learn more »
Give kudos to tab author, rate the tab!
1 2 3 4 5
comments
print report bad tab
guest
You may want to rate the tab now too:
select rating
Wanna post a correction for this tab? Suggest correction