Oops, an error
Loading. Please wait.

Cholly Bass Tab

456 views 1 this week
no commentswrite comment
1 2 3 4 5
please rate
add to favorites
launch autoscroll
font size
0
reset
guitar tuner
Tab Pro tools
  • play this tab
  • loop segment
  • change instrument
  • show fretboard
  • metronome
×
Best way to learn
"Cholly"
Autoscroll
slow
fast
+/-
esc
set tempo
stop
Contributor
Difficulty
novice
-------------------------------------------------------------------------------
                             CHOLLY - Fishbone
-------------------------------------------------------------------------------
Tabbed by: Jay
E-mail: explorer57@rocketmail.com
Tuning: standard

   
Intro:                          x4                                  x2
G|------------------------------|--2-2-2-2--------2-2-2-------------|
D|--2-2-2-2---------2-2-2-------|----------4-2----------4-2---------|
A|----------4-2-----------4-2---|-----------------------------------|
E|------------------------------|-----------------------------------|

G|------------------------------|------------------------------|
D|--2-2-2-2---------2-2-2-------|--2-2-2-2---------2-2-2-------|
A|----------4-2-----------4-2---|----------4-2-----------4-2---|
E|------------------------------|------------------------------|


Verse:                          x2                                  x2
G|------------------------------|--2-2-2-2--------2-2-2-------------|
D|--2-2-2-2---------2-2-2-------|----------4-2----------4-2---------|
A|----------4-2-----------4-2---|-----------------------------------|
E|------------------------------|-----------------------------------|


Riff1:                                                              x4
G|------------------------------------------------------------------|
D|--2-2-2-2-------0-0-0-0-------------------------------------------|
A|----------4-2-----------2-0---------------------------------------|
E|------------------------------------------------------------------|
  
   
Riff2:                                                              x4
G|--2-2-2-2---------------------------------------------------------|
D|----------4-2-0--2-2-2-2------------------------------------------|
A|-------------------------4-2--------------------------------------|
E|------------------------------------------------------------------|


For Guitar Solo:
Verse 
riff1
then repeat D|--2-2-2-2-|  

For Keys Solo:
Verse
riff1

Outro:          xRepeat as necessary
G|--------------|----------------------------------------------------|
D|-2-2-2-2-2-2--|-------2-2-2-2-------0-0-0-0------2~----------------|
A|--------------|---------------4-2-----------2-0--------------------|
E|--------------|----------------------------------------------------|


| /  slide up
| \  slide down
| h  hammer-on
| p  pull-off
| ~  vibrato
| +  harmonic
| x  Mute note
===============================================================================
comments
We did not receive enough feedback on this tab! Please rate:
print report bad tab
1 2 3 4 5
I want to post or [tab]
guest
You may want to rate the tab now too:
select rating
Please do not post tabs as comments. Select "correction" instead!