Oops, an error
Loading. Please wait.

Cristianos tab

version 1
version 1

Whole song

47 views 1 this week
no commentswrite comment
1 2 3 4 5
3 more votes to show rating
add to favorites
×
Save as Personal and add changes to this tab that will be seen only by you. Learn more ›
×
You can save this tab as Personal to edit and correct it or add notes. All changes will be seen only by you. Learn more »
launch autoscroll
font size
0
reset
how to read this tab
guitar tuner
edit
Autoscroll
slow
fast
+/-
esc
set tempo
stop
LA5~

LA5 MI5 LA5 SOL5 LA5 MI5 LA5 SOL5 x2

LA5                                               FA#5-MI5-RE5 MI5-RE5-DO#5
los cristianos de mi barrio lloran el santo sudario
cuidan mucho a sus enfermos, sacrifican a sus muertos
pero ay si no eres cristiano cuidate de esos santos

SI5
si no vas con los cristianos
DO5         SI5         LA5
al infierno te condenan yaa!

DO5 RE5 DO5 LA5 DO5 RE5 DO5  MI5-RE5-DO5 RE5-DO5-SI5

LA5 MI5 LA5 SOL5 LA5 MI5 LA5 SOL5

LA5                                               FA#5-MI5-RE5 MI5-RE5-DO5
siempre en buena esta la iglesia con la izquierda o la derecha
dictadores de moral son monopolio celestial
y nunca sueñes con el cielo si no eres pedro el bueno

SI5
si no vas con nuestra iglesia
DO5           SI5        LA5
te la ves con sor teresa ya!

DO5 RE5 DO5 LA5 DO5 RE5 DO5  MI5-RE5-DO5 RE5-DO5-SI5

LA5~

--------------------------------------------------------
--------------------------------------------------------
-9-9--9-9--7----------------------------7---------------
--------------10----7--7--10-10--10-10------------7--10-
-------------------------------------------10-----------
--------------------------------------------------------

--------------------------------------------------------
--------------------------------------------------------
-9-9--9-9--7----------------------------7---------------
--------------10----7--7--10-10--10-10-----10-----------
--------------------------------------------------------
--------------------------------------------------------

E5    F#5 D5  E5
ay virgen santa
C5     D5  G5
ay san jose
E5    F#5 D5   E5
gritan de pronto
C5     D5    A5~
cristo donde fue

LA5 MI5 LA5 SOL5 LA5 MI5 LA5 SOL5 x2

LA5 D05 LA5 SOL5 LA5 D05 LA5 SOL5 x2

LA5        DO5     LA5    SOL5  LA5     DO5       LA5    SOL5 LA5 D05 LA5 SOL5 LA5 D05 LA5 SOL5 (se repite hasta que termina)

------------------------|-----------------------------------------------
------------------------|-----------------------------------------------
-5b...---------5----5~--|-7-5---5-7-5---5-7-5---5----7-5-----5---5---5~-
-------7-----7----7-----|-----7-------7-------7---7.-----5-7---7---7----
------------------------|-----------------------------------------------
------------------------|-----------------------------------------------

-------------------------------------------------|-----------
-------------------------------------------------|-----------
-5-5-7-5---5-5-7-7-5---5-5-7-7-5---5-5-5-7-h5----|-9brbr...--
---------7-----------7-----------7-------------7-|-----------
-------------------------------------------------|-----------
-------------------------------------------------|-----------

-------------15----------------------------------15----------------------
-16-17-16-17----17-16-17-16-17-16-17-16-17-16-17----17-16-17-16----------
----------------------------------------------------------------17-14-17-
-------------------------------------------------------------------------
-------------------------------------------------------------------------
-------------------------------------------------------------------------

------------------------------------------------------
-16-17-16-17-16-17-16-17-16-17-16-17-16-17-16-17-....-
------------------------------------------------------
------------------------------------------------------
------------------------------------------------------
------------------------------------------------------

       A5~
aaaaaaamen!

            
            
Suggest correction
Creating personal tab
Creating personal tab
You can edit any tab online and save it as your Personal.

You can edit, replace or remove any tab part or add personal notes – all changes will be seen only by you.

Personal tabs can be accessed anytime from any device, even offline.
Learn more »
Give kudos to tab author, rate the tab!
1 2 3 4 5
comments
print report bad tab
guest
Wanna post a correction for this tab? Suggest correction