Oops, an error
Loading. Please wait.

La Mancha Del Jaguar tab

version 1
version 1

Whole song

32 views 1 this week
no commentswrite comment
1 2 3 4 5
3 more votes to show rating
add to favorites
×
Save as Personal and add changes to this tab that will be seen only by you. Learn more ›
×
You can save this tab as Personal to edit and correct it or add notes. All changes will be seen only by you. Learn more »
launch autoscroll
font size
0
reset
how to read this tab
guitar tuner
edit
Autoscroll
slow
fast
+/-
esc
set tempo
stop
INTRO.

e-----------------------------------|--------------------------------------
B-----------------------------------|--------------------------------------
G-----------------------------------|--------------------------------------
D--7---9--7--3------7---9--7--12----|-----7---9--7--3------7---9--7--12----
A--7---9--7--3------7---9--7--12----|-----7---9--7--3------7---9--7--12----
E--5---7--5--1------5---7--5--10----|-----5---7--5--1------5---7--5--10----

Es la nesecidad de cambiar la . . . .|  Las mirada amargadas de esos . . .
e------------------------------------|-------------------------------------
B------------------------------------|-------------------------------------
G------------------------------------|-------------------------------------
D--12--------10--------7--------5----|---12--------10--------7--------5----
A--12--------10--------7--------5----|---12--------10--------7--------5----
E--10--------8---------5--------3----|---10--------8---------5--------3----

Ocultando tras sus coloridas ropas. .| Con tarjetas que te dan cariño un .
e------------------------------------|-------------------------------------
B------------------------------------|-------------------------------------
G------------------------------------|-------------------------------------
D--12------15------17------12-----10-|---12--------10--------7--------5----
A--12------15------17------12-----10-|---12--------10--------7--------5----
E--10------13------15------10-----8--|---10--------8---------5--------3----

Te meten anestesia.                  |  Y tu te portas bien.
e------------------------------------|-------------------------------------
B------------------------------------|-------------------------------------
G------------------------------------|-------------------------------------
D-----3--------5------6--------------|--------3-----------6-----------2----
A-----3--------5------6--------------|--------3-----------6-----------2----
E-----1--------3------4--------------|--------1-----------4-----------0----

El credito es tuyo.                  |  El prestamo tambien.
e------------------------------------|-------------------------------------
B------------------------------------|-------------------------------------
G------------------------------------|-------------------------------------
D-----3----------5----------6--------|-------2------------------9----------
A-----3----------5----------6--------|-------2------------------9----------
E-----1----------3----------4--------|-------0------------------7----------

Yo solo quiero verme.                |  Tranquilo a fin de mes.
e------------------------------------|-------------------------------------
B------------------------------------|-------------------------------------
G------------------------------------|-------------------------------------
D-----3--------5------6--------------|--------3-----------6-----------2----
A-----3--------5------6--------------|--------3-----------6-----------2----
E-----1--------3------4--------------|--------1-----------4-----------0----

Riendome con mis amigos.             |  De las cosas que nunca vamos a . .
e------------------------------------|-------------------------------------
B------------------------------------|-------------------------------------
G------------------------------------|-------------------------------------
D-----3----------5----------6--------|-------2------------------9----------
A-----3----------5----------6--------|-------2------------------9----------
E-----1----------3----------4--------|-------0------------------7----------


Palabras palabras tan solo palabras..|  A la hora de ponerse con el coxino
e------------------------------------|-------------------------------------
B------------------------------------|-------------------------------------
G------------------------------------|-------------------------------------
D--12--------10--------7--------5----|---12--------10--------7--------5----
A--12--------10--------7--------5----|---12--------10--------7--------5----
E--10--------8---------5--------3----|---10--------8---------5--------3----

Aqui todos podemos tenerlo todo  . . | desesperado llegando a fin de mes .
e------------------------------------|-------------------------------------
B------------------------------------|-------------------------------------
G------------------------------------|-------------------------------------
D--12------15------17------12-----10-|---12--------10--------7--------5----
A--12------15------17------12-----10-|---12--------10--------7--------5----
E--10------13------15------10-----8--|---10--------8---------5--------3----


Te meten anestesia.                  |  Y tu te portas bien.
e------------------------------------|-------------------------------------
B------------------------------------|-------------------------------------
G------------------------------------|-------------------------------------
D-----3--------5------6--------------|--------3-----------6-----------2----
A-----3--------5------6--------------|--------3-----------6-----------2----
E-----1--------3------4--------------|--------1-----------4-----------0----

El credito es tuyo.                  |  El prestamo tambien.
e------------------------------------|-------------------------------------
B------------------------------------|-------------------------------------
G------------------------------------|-------------------------------------
D-----3----------5----------6--------|-------2------------------9----------
A-----3----------5----------6--------|-------2------------------9----------
E-----1----------3----------4--------|-------0------------------7----------

Yo solo quiero verme.                |  Tranquilo a fin de mes.
e------------------------------------|-------------------------------------
B------------------------------------|-------------------------------------
G------------------------------------|-------------------------------------
D-----3--------5------6--------------|--------3-----------6-----------2----
A-----3--------5------6--------------|--------3-----------6-----------2----
E-----1--------3------4--------------|--------1-----------4-----------0----

Riendome con mis amigos.             |De las cosas que nunca vamos a tener.
e------------------------------------|-------------------------------------
B------------------------------------|-------------------------------------
G------------------------------------|-------------------------------------
D-----3----------5----------6--------|-------2------------------9----------
A-----3----------5----------6--------|-------2------------------9----------
E-----1----------3----------4--------|-------0------------------7----------


Por Hormiga.

Pa toos los giles ke les gusten los fiskales!

            
            
Suggest correction
Creating personal tab
Creating personal tab
You can edit any tab online and save it as your Personal.

You can edit, replace or remove any tab part or add personal notes – all changes will be seen only by you.

Personal tabs can be accessed anytime from any device, even offline.
Learn more »
Give kudos to tab author, rate the tab!
1 2 3 4 5
comments
print report bad tab
guest
Wanna post a correction for this tab? Suggest correction