Oops, an error
Loading. Please wait.

Libertad Vigilada chords

version 2
version 2

Whole song

20 views 1 this week
no commentswrite comment
1 2 3 4 5
3 more votes to show rating
add to favorites
×
Save as Personal and add changes to this tab that will be seen only by you. Learn more ›
×
You can save this tab as Personal to edit and correct it or add notes. All changes will be seen only by you. Learn more »
launch autoscroll
font size
0
reset
transpose
0
reset
display chords
guitar tuner
edit
Autoscroll
slow
fast
+/-
esc
set tempo
stop
Strumming
There is no strumming pattern for this song yet. and get +5 IQ
INTRO:

D /-------------/
LA /-0-1-1-0-0---/
E /-----------1-/

RIFF(*)X4

D /-------------------------/
A /-------------------------/
MI /-0-0-3-0-0-0-0-0-6-6-6-6-/

(*)Es la guitarra que va de fondo mientras se toca el
   PUNTEO 1

PUNTEO 1:


E /--------------------------------------------/
SI /-11*--11*-11*-11*--11*--11*--11*-11*-11*-11-/
G/--------------------------------------------/

11* = con full

full:
      )
/----/---/
/-11/----/
/--------/

D /-------------/
LA /-0-1-1-0-0---/
E /-----------1-/

            E
A)Y salgo a caminar, a pajarear y pensar
           F                      E
  En busca de algo que siempre voy a buscar
                         F
  Hace calor y es muy temprano
          E
  Para un trago fuerte ir a tomar
     F            E                     F
  Cerveza y más cerveza no me sienta nada mal
           E
  Y me emputezco al recordar
        F        E
  Esa estúpida presión
                   F        E
  Que día a día yo debo aguantar
                             F       E
  De los que mis drogas y mi vida quieren controlar
         F                  E
  Y mi manera de ser, y mi manera de actuar
                         F
  Y yo te digo escucha imbécil
     E               F       E
  No seas policía, ni seas capellán
                         F
  Escúchanos señor, nada te rogamos
        E
  No te metas en lo mío
            F                 E
  Que yo no quiero tener que pagar
                     F         E
  El mal precio de vivir y de morir
             F   E           F      E
  En libertad, en libertad, en libertad, vigiladaaaaaa...

B)Do Re Mi-Re-Do

RIFF 1:

RE /-----------------3-0-2--2-2-2--2-2-2--0---/
A /---------------3------------------------3-/
MI /-3--5-5-3--5-5----------------------------/

     RIFF 1
C)Mi libertad vigilada
      RIFF 1
  Que mal precio he de pagar
     RIFF 1
  Mi libertad vigilada
      RIFF 1        E
  Que mal precio mi libertaaaaaad...

PUNTEO 2

B /-----------------------------------------------/
SOL/------11-9--12-11-9-12-11-9-7--12-7-5-4-5--5-4-/
D /-9-12------------------------------------------/

B /---------------------------------------/
SOL/-9--12-11-9-12-11-9-7--12-7-5-4-5--5-4-/
D /---------------------------------------/

    E                 F-E
A)Y salgo, salgo, salgo
                 F
  Salgo a caminar
    E                 F-E
  Y salgo, salgo, salgo
              F
  Y salgo, salgo, salgoooooo...

RIFF 2(X6):

D /-------------------------------------------------------------/
LA /-----------------------------------------------------10-9----/
E /-12--12-12-12--10--12--12-12-12--10--12--12-12-12-10------10-/

RIFF 3:

G/----------------------------------------------/
D /----------------------------------------------/
LA /-7-10-7-10-7-10-7-10--10--7-10-7-10-7-10-7-10-/

G/-------------------------------------------------------9-/
RE /-------------------------------------------------------9-/
A /-10--7-10-7-10-7-10-7-10--10--7-10-7-10-7-10-7-10--10--7-/

EL PUNTEO DEL FINAL:

D /-----0---0-2-0------------0----------/
LA /---2---2-------2-0------2---2-3-2-0--/
E /-3-----------------3--3--------------/

Termina con Sol

----------------------------------------------------------------------

¡¡¡AGUANTE FISKALES!!!

            
            
Suggest correction
Creating personal tab
Creating personal tab
You can edit any tab online and save it as your Personal.

You can edit, replace or remove any tab part or add personal notes – all changes will be seen only by you.

Personal tabs can be accessed anytime from any device, even offline.
Learn more »
Give kudos to tab author, rate the tab!
1 2 3 4 5
comments
print report bad tab
guest
Wanna post a correction for this tab? Suggest correction