Oops, an error
Loading. Please wait.

Tonto tab

version 1
version 1

Whole song

20 views 1 this week
no commentswrite comment
1 2 3 4 5
3 more votes to show rating
add to favorites
×
Save as Personal and add changes to this tab that will be seen only by you. Learn more ›
×
You can save this tab as Personal to edit and correct it or add notes. All changes will be seen only by you. Learn more »
launch autoscroll
font size
0
reset
how to read this tab
guitar tuner
edit
Autoscroll
slow
fast
+/-
esc
set tempo
stop
Intro / Fig.1

e -----------------------
B -----------------------
G -----------------------
D -55-8-55-77-5--55-8-5--
A -55-8-55-77-5--55-8-5--
E -33-6-33-55-3--33-6-3--


Fig.1
Hoy no es mi día, llegue atrasado,

Fig.1
perdí el trabajo y estoy muy cansado.

Fig.1
Me dejo mi mina, no tengo un peso,

Fig.1
pero no importa, camino muy derecho.


A - F - E  X4

A* - F - E  X4

Azúcar! uop uop!!
e ---------------------------------
B ---------------------------------
G ---------10-10-10-10-9-9-9-9-9-9-
D -7-7-7-7-------------------------
A ---------------------------------
E ---------------------------------


A

A             C            D                   G-A-A-G-A-A
La senda del perdedor, es mi camino, nada mejor.

         A         C                D
Y en la senda del perdedor, yo soy ganador.

G-A-A-G-A-A
Y poco importa, que interesa!


F - D  X2
G - A  X2


Fig.1  X3


Fig.1
Prendo la tele, veo desgracia,

Fig.1
mi mundo muere y no tiene gracia.

Fig.1
No hay ilusiones, ni esperanzas,

Fig.1
la plata mata, la vida vale nada.


A - F - E  X4

A* - F - E  X4

Azúcar! uop uop!!
e ---------------------------------
B ---------------------------------
G ---------10-10-10-10-9-9-9-9-9-9-
D -7-7-7-7-------------------------
A ---------------------------------
E ---------------------------------


e ----------------------------
B ----------------------------
G ----------------------------
D -(7)x-x-x-x-x-x-x-x-x-x-x-x-x--
A -(7)x-x-x-x-x-x-x-x-x-x-x-x-x--
E -(5)x-x-x-x-x-x-x-x-x-x-x-x-x--


A

A             C            D                   G-A-A-G-A-A
La senda del perdedor, es mi camino, nada mejor.

         A         C                D
Y en la senda del perdedor, yo soy ganador.

G-A-A-G-A-A
Y poco importa, que interesa!


F - D  X2
G - A  X2

G-Bb-G X3


G
Tonto!

   A*
e ----
B -10-
G -9--
D -7--
A ----
E ----

..y bueno.. esta cancioncilla va con mutxo cariño a
LA panxita..'azûcar'..

            
            
Suggest correction
Creating personal tab
Creating personal tab
You can edit any tab online and save it as your Personal.

You can edit, replace or remove any tab part or add personal notes – all changes will be seen only by you.

Personal tabs can be accessed anytime from any device, even offline.
Learn more »
Give kudos to tab author, rate the tab!
1 2 3 4 5
comments
print report bad tab
guest
Wanna post a correction for this tab? Suggest correction