Oops, an error
Loading. Please wait.

Ancient Waters Tab

9,856 views 33 this week
1 commentread comment
1 2 3 4 5
accurate
x 7
add to favorites
launch autoscroll
font size
0
reset
how to read this tab
guitar tuner
Autoscroll
slow
fast
+/-
esc
set tempo
stop
Help us to improve Ultimate-Guitar.com Take our survey!
×
Author
Tuning
A# F A# D# G C
http://www.solidstaterecords.com/artists/310/Fit_For_A_King/

Ancient Waters
Fit For A King
Descendents

Dropped Bb Tuning: (Bb F Bb Eb G C)

Song has 2 guitars
Guitar 1- rhythym
Guitar 2- lead (with tremolo pick for the high parts)

email: tabman96@gmail.com
UG account: Mayday69


Intro & 1st Verse
(0:00-0:41)
"I HAVE COME TO DESTROY!"

Both Guitars
C |--------------------------------------------|
G |-------------------------------------(x12)--|
Eb|--------------------------------------------|
Bb|-0-----------0---------------000-00---------|
F |-0--12-12-12-0--13--13-13-13-000-00---------|
Bb|-0--12-12-12-0--13--13-13-13-000-00---------|


Breakdown
(0:41-1:07)
"YOU WILL KNOW JUDGEMENT"

Both Guitars (all are "1's" not "11's)"
C |---------------------------------------------------------------|
G |---------------------------------------------------------(x2)--|
Eb|---------------------------------------------------------------|
Bb|--0-0----------------------------0-0---------------------------|
F |--0-0---0000-00---0-11--0-11-----0-0---0000-00---0-11--0-------|
Bb|--0-0---1111-11---1-11--1-11-----0-0---1111-11---1-11--1-------|


1st Verse continued
(1:07-1:34)

Guitar 1
C |--------------------------------------------------------|
G |--------------------------------------------------(X4)--|
Eb|--------------------------------------------------------|
Bb|--0000-0000-0-12121212-888--5555-5555-5-8888-555--------|
F |--0000-0000-0-12121212-888--5555-5555-5-8888-555--------|
Bb|--0000-0000-0-12121212-888--5555-5555-5-8888-555--------|

Guitar 2 (comes in at 1:20)
C |--17~--18~--15~--13~--15~----17~--18~--15~--13~--12~--|
G |------------------------------------------------------|
Eb|------------------------------------------------------|
Bb|------------------------------------------------------|
F |------------------------------------------------------|
Bb|------------------------------------------------------|


Pre-Chorus
(1:34-1:41)

Guitar 1
C |------------------------------------|
G |------------------------------------|
Eb|------------------------------------|
Bb|--00--00-0--00-0--8888-8888-5555-5--|
F |--00--00-0--00-0--8888-8888-5555-5--|
Bb|--00--00-0--00-0--8888-8888-5555-5--|

Guitar 2
(most of the notes are tremolo but a few aren't)
C |------------17~--17-18-17-----|
G |--15~--18~----------------18--|
Eb|------------------------------|
Bb|------------------------------|
F |------------------------------|
Bb|------------------------------|


Chorus
(1:41-2:07)
"Tonight, we'll see this through"

Guitar 1
C |--------------------------| I won't tab out each time
G |---------------------(x2)-| you play each chord (it's
Eb|--------------------------| too fast & too many) but
Bb|--0----10---5----10-------| this is the order, listen
F |--0----8----5----8--------| to the song for how many
Bb|--0----8----5----8--------| times each.

Guitar 2 (tremolo again)
C |--------------------------------------------------17-18-17-----------|
G |--15~----13~--15~------------------------------------------18--------|
Eb|-------------------14~--15~--14~--12~--14~---15~---------------------|
Bb|---------------------------------------------------------------(x2)--|
F |---------------------------------------------------------------------|
Bb|---------------------------------------------------------------------|


Verse 2 part 1
(2:07-2:34)

Guitar 1
C |---------------------------------------------------------------------|
G |---------------------------------------------------------------(x2)--|
Eb|---------------------------------------------------------------------|
Bb|--0-0---0000-0-0----0-0---000--------00000-0-0---0-0-----------------|
F |--0-0---0000-0-0----0-0---000--------00000-0-0---0-0----0-0-0--------|
Bb|--0-0---0000-0-0----0-0---000-0-0----00000-0-0---0-0----0-0-0--------|
     * *   **** * *    * *   ***        ***** * *   * *    * * *
Guitar 2
C |--13~---------------12~--------------------------------------|
G |------------------------------10~----------11~---10~---------|
Eb|-------------------------------------------------------------|
Bb|-------------------------------------------------------(x2)--|
F |-------------------------------------------------------------|
Bb|-------------------------------------------------------------|


Verse 2 part 2
(2:34-2:59)

Guitar 2 ONLY
C |--17~--18~--15~--13~--15~----17~--18~--15~--13~--12~---------|
G |-------------------------------------------------------------|
Eb|-------------------------------------------------------(x4)--|
Bb|-------------------------------------------------------------|
F |-------------------------------------------------------------|
Bb|-------------------------------------------------------------|


Chorus (2:59-3:27) is the same as it was from 1:40-2:07


Outro part 1
(3:27-3:33)

Guitar 1
C |-------------------------------------------|
G |-------------------------------------(x2)--|
Eb|-------------------------------------------|
Bb|-0-----------0---------------000-00--------|
F |-0--12-12-12-0--13--13-13-13-000-00--------|
Bb|-0--12-12-12-0--13--13-13-13-000-00--------|

Guitar 2
C |-----------18~---17~-----20~-------|
G |--15~------------------------------|
Eb|-----------------------------------|
Bb|-----------------------------------|
F |-----------------------------------|
Bb|-----------------------------------|

Outro part 2
(3:33-3:51)

Guitar 1
C |-------------------------------------------------|
G |-------------------------------------------(x2)--|
Eb|-------------------------------------------------|
Bb|-------------------------------------------------|
F |--0--0000-000---1-0-1--0-0000-000---0-1-1--------|
Bb|--1--0000-000---1-1-1--1-0000-000---1-1-1--------|

Guitar 2
C |-----------------------------------|
G |--15~----15b---15~-----15b----15---|
Eb|-----------------------------------|
Bb|-----------------------------------|
F |-----------------------------------|
Bb|-----------------------------------|

*=palm mute
/=slide up
\=slide down
~=tremolo pick
(nh)=harmonic
(ph)=pinch
h=hammer on
p=pull off
b=bend
Suggest correction
comments
print report bad tab
1 comment total.
0 reply
poketr0nmaster 10 wrote on March 29 2014, 04:21 pm

COULD YOU POST CHORDS FOR SKIN AND BONES PLSSSSS

guest
You may want to rate the tab now too:
select rating
Wanna post a correction for this tab? Suggest correction