Oops, an error
Loading. Please wait.

Absolute Hope Absolute Hell tab

version 1
version 1

Whole song

  • This tab contains both guitars, and there's a time... Show more

Interactive

88 views 9 this week
1 commentread comment
1 2 3 4 5
3 more votes to show rating
add to favorites
×
Save as Personal and add changes to this tab that will be seen only by you. Learn more ›
×
You can save this tab as Personal to edit and correct it or add notes. All changes will be seen only by you. Learn more »
launch autoscroll
font size
0
reset
how to read this tab
guitar tuner
edit
Autoscroll
slow
fast
+/-
esc
set tempo
stop
About this tab version
This tab contains both guitars, and there's a time signature for each section so everyone knows when to change. Was this info helpful? Yes No
Tuning 7-String Drop A (AEADGBe)

[Intro Part 1]
Time Signature = 11/8
(Guitar 1)
  t                 t             t                 t             t             t           t       t
e|------------------------------|------------------------------|------------------------|--------14p0-----|
B|17p0h12p0h12h13p0-17p0h12h13p0|16p0h12p0h12h13p0-16p0h12h13p0|13p0h7p07h8p0-13p0h7h8p0|12p0h7h8----12h13|
G|------------------------------|------------------------------|------------------------|-----------------|
D|------------------------------|------------------------------|------------------------|-----------------|x6
A|------------------------------|------------------------------|------------------------|-----------------|
E|------------------------------|------------------------------|------------------------|-----------------|
A|------------------------------|------------------------------|------------------------|-----------------|

(Guitar 2)
e|-----------|-----------|
B|-----------|-----------|
G|-----------|-----------|
D|-----------|-----------|
A|-----------|-----------|
E|-----------|-----------|
A|2----------|2----------|

e|-----------------------|----------------------|----------------------|----------------|
B|-----------------------|----------------------|----------------------|----------------|
G|-----------------------|----------------------|----------------------|----------------|
D|-----------------------|----------------------|----------------------|--------9-------|(x2)
A|-----------------------|---------2------------|----3---------------7-|----------------|
E|2---------------------2|3---2----------2-----2|3---------3---3/7-----|--6-------------|
A|2---------------------2|3---2----------2-----2|3---------3---3/7-----|--6-------------|

[Intro Part 2]
Time Signature = 13/8
(Guitar 1)
e|----------------------|-------------------------|----------------------|------------------------|
B|----------------------|-------------------------|----------------------|------------------------|
G|------------5-----4---|(4)----------------------|------------5-----4---|------------------------|
D|------5---------------|-------------------------|------5---------------|--------------------5---|
A|----------------------|-------------------------|----------------------|------------------------|
E|----------------------|-------------------------|----------------------|--------------3---------|
A|3---------------------|-------------------------|5---------------------|--------3---------------|

(Guitar 2)
e|------------|------------|------------|----------------|
B|------------|------------|------------|----------------|
G|------------|------------|------------|----------------|
D|------------|------------|------------|----------------|
A|------------|------------|------------|----------------|
E|3-----------|(3)---------|5-----------|--------3-------|
A|3-----------|(3)---------|5-----------|--------3-------|

[Intro Part 3]
Time Signature = 4/4
(Guitar 1 and 2)
e|--------------------------------|--------------------------------|
B|--------------------------------|--------------------------------|
G|--------------------------------|----------0---------------------|
D|----7-----------7---------------|----------------4---------------|
A|--------------------------------|--------------------------------|
E|--------------------------------|--------------------------------|
A|3---------3---------------------|3---2---------------------------|

[Verse]
Time Signature = 4/4
(Guitar 1)
e|--------------------------------|--------------------------------|--------------------------------|
B|--------------------------------|--------------------------------|--------------------------------|
G|--------------------------------|--------------------------------|--------------------------------|
D|--------------------------------|--------------------------------|--------------------------------|
A|--------------------------------|--------------------------------|--------------------------------|
E|2-2-2---2-2-2---2-2-2---3-3-0-0-|2-2-----2-2-2---2-2-2---3-3-3---|2-2-2---3-3-0-0-2-2-----2-2-2---|
A|2-2-2---2-2-2---2-2-2-----------|----3-3-2-2-2---2-2-2---3-3-3---|2-2-2---------------3-3-2-2-2---|
  PM---------------------|                 PM----------------------------|                  PM-----|

e|--------------------------------|
B|--------------------------------|
G|--------------------------------|
D|--------------------------------|(x6)
A|2-2-----------------------------|
E|----2-2-3-3-0-0-3-3-3---3-3-3---|
A|----------------3-3-3---3-3-3---|
                  PM-------------|

(Guitar 2)
e|----------------|--------------------------------|--------------------------------|
B|----------------|--------------------------------|--------------------------------|
G|----------------|--------------------------------|--------------------------------|
D|----------------|--------------------------------|--------------------------------|
A|----------------|--------------------------------|--------------------------------|
E|3-3-3---3-3-3---|2-2-2---2-2-2---2-2-2-----------|--------2-2-2---2-2-2---3-3-3---|
A|3-3-3---3-3-3---|2-2-2---2-2-2---2-2-2-----------|--------2-2-2---2-2-2---3-3-3---|
  PM------------------------------------|                   PM---------------------|

e|--------------------------------|----------------------------|
B|--------------------------------|----------------------------|
G|--------------------------------|----------------------------|
D|--------------------------------|----------------------------|
A|--------------------------------|2-2-------------------------|
E|2-2-2---3-3-0-0-2-2-----2-2-2---|----3-3-0-0-3-3-3---3-3-3---|
A|2-2-2---------------3-3-2-2-2---|------------3-3-3---3-3-3---|
  PM-----|                PM-----|             PM-------------|

e|--------------------------------|--------------------------------|--------------------------------|
B|--------------------------------|--------------------------------|--------------------------------|
G|--------------------------------|--------------------------------|--------------------------------|
D|--------------------------------|--------------------------------|--------------------------------|
A|--------------------------------|--------------------------------|--------------------------------|
E|2-2-2---2-2-2---2-2-2---3-3-0-0-|2-2-----2-2-2---2-2-2---3-3-3---|2-2-2---3-3-0-0-2-2-----2-2-2---|
A|2-2-2---2-2-2---2-2-2-----------|----3-3-2-2-2---2-2-2---3-3-3---|2-2-2---------------3-3-2-2-2---|
  PM---------------------|                 PM------------------------------|                PM-----|

e|--------------------------------|
B|--------------------------------|
G|--------------------------------|
D|--------------------------------|(x4)
A|2-2-----------------------------|
E|----2-2-3-3-0-0-3-3-3---3-3-3---|
A|----------------3-3-3---3-3-3---|
                  PM-------------|

(Guitar 1 and 2)
e|--------------------------------|
B|--------------------------------|
G|--------------------------------|
D|--------------------------------|
A|--------------------------------|
E|--------------------------------|
A|------------------------3-------|

[Breakdown 1]
Time Signature = 4/4
(Guitar 1 and 2)                   1st Ending                       2nd Ending              N.H.
e|--------------------------------|--------------------------------|------------------------x------|
B|--------------------------------|--------------------------------|-------------------------x-----|
G|--------------------------------|--------------------------------|--------------------------x----|
D|--------------------------------|--------------------------------|---------------------------x---|(x3)
A|--------------------------------|--------------------------------|----------------------------x--|
E|2-2-2---5-5-5---2-2-2---3---3-3-|3-3-3---2-2-2---2-2-2---3-------|3-3-3---2-2-2---2-2-2--------x-|
A|2-2-2---5-5-5---2-2-2---3---3-3-|3-3-3---2-2-2---2-2-2---3-------|3-3-3---2-2-2---2-2-2----------|
  PM------------------------------------------------------|         PM-------------------|

(Guitar 1 and 2)                   1st Ending                       2nd Ending
e|--------------------------------|--------------------------------|--------------------------------|
B|--------------------------------|--------------------------------|--------------------------------|
G|--------------------------------|--------------------------------|--------------------------------|
D|--------------------------------|--------------------------------|--------------------------------|
A|--------------------------------|--------------------------------|--------------------------------|
E|2-2-2---5-5-5---2-2-2---3---3-3-|3-3-3---2-2-2---2-2-2---3-------|3-3-3---2-2-2---5-------3-------|
A|2-2-2---5-5-5---2-2-2---3---3-3-|3-3-3---2-2-2---2-2-2---3-------|3-3-3---2-2-2---5-------3-------|
  PM------------------------------------------------------|         PM-------------|

[Build-up]
Time Signature = 4/4
(Guitar 1)
e|--------------------------------|--------------------------------|
B|--------------------------------|--------------------------------|
G|--------------------------------|--------------------------------|
D|--------------------------------|--------------------------------|(x8)
A|2-------------------------------|2-------------------------------|
E|2-------------------------------|2-------------------------------|
A|2-------------------------------|2-------------------------------|

(Guitar 2)
e|--------------------------------|--------------------------------|
B|--------------------------------|--------------------------------|
G|--------------------------------|--------------------------------|
D|--------------------------------|--------------------------------|(x4)
A|--------------------------------|--------------------------------|
E|2---2---2---2---2---2---2---2---|2---2---2---2---2---2-2---2-2-2-|
A|2---2---2---2---2---2---2---2---|2---2---2---2---2---2-2---2-2-2-|
  PM----------------------------------------------------|    PM-|

e|--------------------------------|--------------------------------|
B|--------7---8-------8---7-------|--------7---8-------------------|
G|----------------9-----------9---|----9-----------9---------------|
D|----9---------------------------|--------------------------------|(x4)
A|--------------------------------|--------------------------------|
E|--------------------------------|--------------------------------|
A|--------------------------------|--------------------------------|
  Let Ring

[Break]
Time Signature = 4/4
(Guitar 1)
e|--------------------------------|--------------------------------|
B|--------------------------------|--------------------------------|
G|--------------------------------|--------------------------------|
D|--------------------------------|--------------------------------|
A|2---------------------------2---|2-----------2-------------------|
E|2---2---2---2---2---2---2---2---|2---2---2---2-------------------|
A|2---2---2---2---2---2---2---2---|2---2---2---2-------------------|
      PM---------------------|         PM-----|

[Breakdown 2]
Time Signature = 4/4
(Guitar 1)
e|--------------------------------|--------------------------------|
B|--------------------------------|--------------------------------|
G|--------------------------------|--------------------------------|
D|--------------------------------|--------------------------------|(x6)
A|2---------------------------2---|2-----------2---------2-------2-|
E|2---2---2---2---2---2---2---2---|2---2---2---2---2---2-2---2-2-2-|
A|2---2---2---2---2---2---2---2---|2---2---2---2---2---2-2---2-2-2-|
      PM---------------------|         PM-----|    PM---|    PM-|

(Guitar 2)
e|--------------------------------|--------------------------------|
B|--------------------------------|--------------------------------|
G|--------------------------------|--------------------------------|
D|--------------------------------|--------------------------------|(x2)
A|2---------------------------2---|2-----------2---------2-------2-|
E|2---2---2---2---2---2---2---2---|2---2---2---2---2---2-2---2-2-2-|
A|2---2---2---2---2---2---2---2---|2---2---2---2---2---2-2---2-2-2-|
      PM---------------------|         PM-----|    PM---|    PM-|

e|--------------------------------|--------------------------------|
B|--------7---8-------8---7-------|--------7---8-------------------|
G|----------------9-----------9---|----9-----------9---------------|
D|----9---------------------------|--------------------------------|(x8)
A|--------------------------------|--------------------------------|
E|--------------------------------|--------------------------------|
A|--------------------------------|--------------------------------|
  Let Ring

************************************

| x    Dead note
| (n)  Ghost note
| h    Hammer-on
| p    Pull-off
| t    Tapping
| /    Slide up
| PM   Palm mute
| N.H. Natural Harmonic

************************************

            
            
Suggest correction
Creating personal tab
Creating personal tab
You can edit any tab online and save it as your Personal.

You can edit, replace or remove any tab part or add personal notes – all changes will be seen only by you.

Personal tabs can be accessed anytime from any device, even offline.
Learn more »
Give kudos to tab author, rate the tab!
1 2 3 4 5
comments
print report bad tab
1 comment total.
0 reply
LMBozovich 731 Jun 24, 2017 01:16 AM

Guys, gals, thanks for viewing this tab. Make sure to rate.

guest
You may want to rate the tab now too:
select rating
Wanna post a correction for this tab? Suggest correction