Oops, an error
Loading. Please wait.

Ghosts In The River tab

112 views 6 this week
1 commentread comment
1 2 3 4 5
2 more votes to show rating
add to favorites
×
Save as Personal and add changes to this tab that will be seen only by you. Learn more ›
×
You can save this tab as Personal to edit and correct it or add notes. All changes will be seen only by you. Learn more »
launch autoscroll
font size
0
reset
how to read this tab
guitar tuner
edit
Autoscroll
slow
fast
+/-
esc
set tempo
stop
About this tab version
This is Ghosts In The River by Fit For An Autopsy, classic 4/4 time, 7-string Drop G. Without the guitar cover by Coston Romain (which was played in G Standard), this tab wouldn't be here. Was this info helpful? Yes No
Tuning 7-string Drop G (GDGCFAd)

[Intro Part 1]
(Guitar 1)
d|--------------------------------|
A|--------------------------------|
F|--------------------------------|
C|6p3---------5p3-----6p3---------|(x4)
G|----4p3---------4p3-----4p3-----|
D|--------4p3-----------------4p3-|
G|--------------------------------|
 |PM-----------------------------|

d|--------------------------------|
A|--------------------------------|
F|--------------------------------|
C|--------------------------------|(x2)
G|6p4---------6p4-----6p4---------|
D|----6p4---------6p4-----6p4-----|
G|--------6p4-----------------6p4-|
 |PM-----------------------------|

[Intro Part 2]
(Guitar 1)  
Lay me deep in the mountain.  Frozen Limbs collapse as they climb
d|--------------------------------|
A|--------------------------------|
F|--------------------------------|
C|6p3---------5p3-----6p3---------|(x4)
G|----4p3---------4p3-----4p3-----|
D|--------4p3-----------------4p3-|
G|--------------------------------|
 |PM-----------------------------|

  The impossible horizon
d|--------------------------------|
A|--------------------------------|
F|--------------------------------|
C|--------------------------------|(x2)
G|6p4---------6p4-----6p4---------|
D|----6p4---------6p4-----6p4-----|
G|--------6p4-----------------6p4-|
  PM-----------------------------|

  My will is broken.  My eyes have seen what they've always known
d|--------------------------------|
A|--------------------------------|
F|--------------------------------|
C|6p3---------5p3-----6p3---------|(x4)
G|----4p3---------4p3-----4p3-----|
D|--------4p3-----------------4p3-|
G|--------------------------------|
  PM-----------------------------|

  Every day has a shadow behind it
d|--------------------------------|
A|--------------------------------|
F|--------------------------------|
C|--------------------------------|(x2)
G|6p4---------6p4-----6p4---------|
D|----6p4---------6p4-----6p4-----|
G|--------6p4-----------------6p4-|
  PM-----------------------------|

  Every soul
d|--------------------------------|
A|--------------------------------|
F|--------------------------------|
C|6p3---------5p3-----6p3---------|(x2)
G|----4p3---------4p3-----4p3-----|
D|--------4p3-----------------4p3-|
G|--------------------------------|
  PM-----------------------------|

  Every soul has a price they pay
d|--------------------------------|
A|--------------------------------|
F|--------------------------------|
C|--------------------------------|(x2)
G|6p4---------6p4-----6p4---------|
D|----6p4---------6p4-----6p4-----|
G|--------6p4-----------------6p4-|
  PM-----------------------------|

[Hook Part 1]
(Guitar 1)                         1st Ending                       2nd Ending
d|--------------------------------|--------------------------------|--------------------------------|
A|--------------------------------|--------------------------------|--------------------------------|
F|--------------------------------|--------------------------------|--------------------------------|
C|--------------------------------|--------------------------------|----------------6-6-------------|(x2)
G|--------------------------------|--------------------------------|----4-4-----3-3-----4-4-3-3-4-4-|
D|--------------------------------|--------------------6-6-----4-4-|--------------------------------|
G|4-4-4-4-3-3-3-3-3-3-3-3-3-3-3-3-|3-3-3-3-3-3-3-3-3-3-----3-3-----|3-3-----3-3---------------------|

(Guitar 2)
d|--------------------------------|--------------------------------|
A|9-9-9-9-8-8-8-8-8-8-8-8-8-8-8-8-|8-8-8-8b9-9-9-9-9-9-9-9-9-9r8-8-|
F|--------------------------------|--------------------------------|
C|--------------------------------|--------------------------------|(x4)
G|--------------------------------|--------------------------------|
D|--------------------------------|--------------------------------|
G|--------------------------------|--------------------------------|
                                   Gradually Bend up

[Hook Part 2]
(Guitar 1 and 2)                   1st Ending                       2nd Ending
d|--------------------------------|--------------------------------|--------------------------------|
A|--------------------------------|--------------------------------|--------------------------------|
F|--------------------------------|--------------------------------|--------------------------------|
C|--------------------------------|--------------------------------|--------------------------------|(x2)
G|--------------------------------|--------------------------------|--------------------------------|
D|4---4---3-------3-3-3---3---3---|3/4\3---3---6/8\3---3---6---0---|6/8\3---3---4/6\3---3---3/4\3---|
G|4---4---3-------3-3-3---3---3---|3/4\3---3---6/8\3---3---6---0---|6/8\3---3---4/6\3---3---3/4\3---|

[Hook Part 3]
(Guitar 1 and 2)
d|--------------------------------|--------------------------------|
A|--------------------------------|--------------------------------|
F|--------------------------------|--------------------------------|
C|--------6p3---------------------|6p3-----------------6p3---------|
G|------------4p3-----------------|----4p3-----------------4p3-----|
D|3---------------4p3-----3-------|--------4p3-----6p0---------4---|
G|3-------------------8p5-3-------|------------8p5-6p0---------4---|

d|--------------------------------|--------------------------------|
A|--------------------------------|--------------------------------|
F|--------------------------------|--------------------------------|
C|--------6p3---------------------|--------------------------------|(x2)
G|------------4p3-----------------|--------------------------------|
D|3---------------4p3-----4p0-3p0-|8-8-8-8-8-8-8-8-4-4-4-4-4-4-4-4-|
G|3-------------------8p5-4p0-3p0-|6-6-6-6-6-6-6-6-3-3-3-3-3-3-3-3-|

(Guitar 1)
d|--------------------------------|
A|--------------------------------|
F|--------------------------------|
C|6p3---------5p3-----6p3---------|(x4)
G|----4p3---------4p3-----4p3-----|
D|--------4p3-----------------4p3-|
G|--------------------------------|
  PM-----------------------------|

d|--------------------------------|
A|--------------------------------|
F|--------------------------------|
C|--------------------------------|(x2)
G|6p4---------6p4-----6p4---------|
D|----6p4---------6p4-----6p4-----|
G|--------6p4-----------------6p4-|
  PM-----------------------------|

  Lay me deep in the waters.  Sunken limbs collapse as they try
d|--------------------------------|
A|--------------------------------|
F|--------------------------------|
C|6p3---------5p3-----6p3---------|(x4)
G|----4p3---------4p3-----4p3-----|
D|--------4p3-----------------4p3-|
G|--------------------------------|
  PM-----------------------------|

  to reach for the shoreline
d|--------------------------------|
A|--------------------------------|
F|--------------------------------|
C|--------------------------------|(x2)
G|6p4---------6p4-----6p4---------|
D|----6p4---------6p4-----6p4-----|
G|--------6p4-----------------6p4-|
  PM-----------------------------|

  Souls left to wade and wallow
d|--------------------------------|
A|--------------------------------|
F|--------------------------------|
C|6p3---------5p3-----6p3---------|(x2)
G|----4p3---------4p3-----4p3-----|
D|--------4p3-----------------4p3-|
G|--------------------------------|
  PM-----------------------------|

  Cries of sorrow call my name
d|--------------------------------|
A|--------------------------------|
F|--------------------------------|
C|--------------------------------|(x2)
G|6p4---------6p4-----6p4---------|
D|----6p4---------6p4-----6p4-----|
G|--------6p4-----------------6p4-|
  PM-----------------------------|

[Break]
(Guitar 1)
d|--------------------------------|--------------------------------|
A|11------------------------------|10---------------6--------------|
F|--------------------------------|--------------------------------|
C|--------------------------------|--------------------------------|
G|--------------------------------|--------------------------------|
D|--------------------------------|--------------------------------|
G|--------------------------------|--------------------------------|

[Post-Break]
(Guitar 1)
d|--------------------------------|--------------------------------|
A|--------------------------------|--------------------------------|
F|--------------------------------|--------------------------------|
C|--------------------------------|--------------------------------|
G|--------------------------------|--------------------------------|
D|9---9---9---9---9---9---9---9---|8---8---8---8---8---8---8---8---|
G|8---8---8---8---8---8---8---8---|8---6---6---6---6---6---6---6---|

d|--------------------------------|--------------------------------|
A|--------------------------------|--------------------------------|
F|--------------------------------|--------------------------------|
C|--------------------------------|--------------------------------|(x4)
G|--------------------------------|--------------------------------|
D|6---6---6---6---6---6---6---3---|4---4---4---4---4---4---4---4---|
G|4---4---4---4---4---4---4---2---|3---3---3---3---3---3---3---3---|

(Guitar 2)
d|9---9---9---9---9---9---9---8---|8---8---8---8---8---8---8---4---|
A|-----------------------------------------------------------------|
F|-----------------------------------------------------------------|
C|-----------------------------------------------------------------|
G|-----------------------------------------------------------------|
D|-----------------------------------------------------------------|
G|-----------------------------------------------------------------|

d|4---6---6---6---6---6---6---3---|2b3--3--3--3--3r2--2--2--|
A|--------------------------------|-------------------------|
F|--------------------------------|-------------------------|
C|--------------------------------|-------------------------|
G|--------------------------------|-------------------------|
D|--------------------------------|-------------------------|
G|--------------------------------|-------------------------|
                                   Gradually bend up, then release on the "and" of 3

************************************************************

|b   bend
|r   release
|/   slide up
|\   slide down
|p   pull-off
|PM  palm mute

************************************************************

            
            
Suggest correction
Creating personal tab
Creating personal tab
You can edit any tab online and save it as your Personal.

You can edit, replace or remove any tab part or add personal notes – all changes will be seen only by you.

Personal tabs can be accessed anytime from any device, even offline.
Learn more »
Give kudos to tab author, rate the tab!
1 2 3 4 5
comments
print report bad tab
1 comment total.
0 reply
LMBozovich 753 Jun 24, 2017 01:13 AM

Guys, gals, thanks for viewing this tab. Make sure to rate.

guest
You may want to rate the tab now too:
select rating
Wanna post a correction for this tab? Suggest correction