Oops, an error
Loading. Please wait.

Heads Will Hang tab

409 views 30 this week
1 commentread comment
1 2 3 4 5
1 last vote to show rating
add to favorites
×
Save as Personal and add changes to this tab that will be seen only by you. Learn more ›
×
You can save this tab as Personal to edit and correct it or add notes. All changes will be seen only by you. Learn more »
launch autoscroll
font size
0
reset
how to read this tab
guitar tuner
edit
Autoscroll
slow
fast
+/-
esc
set tempo
stop
Author
Difficulty
About this tab version
This is Heads Will Hang by Fit For An Autopsy. This tab is based off the playthrough performed by Patrick Sheridan. Was this info helpful? Yes No
Tuning = 7-String Drop G (GDGCFAd)

[Intro]
(Guitar 1 and 2)                   1st Ending              N.H.     2nd Ending
d|--------------------------------|------------------------x-------|------------------------------------|
A|--------------------------------|-------------------------x------|------------------------------------|
F|----0---------------------------|----0---------------------x-----|----0-------------------------------|
C|----4---------------------------|----4----------------------x----|----4-------------------------------|(x2)
G|----2---0---2-------3---3-------|----2---0---2-------3-------x---|----2---0---2-------3---3-3-3-2-2-2-|
D|2-------0---2-------3---3---2---|2-------0---2-------3--------x--|2-------0---2-------3---3-3-3-2-2-2-|
G|3-------0---2-------3---3---3---|3-------0---2-------3-----------|3-------0---2-------3---3-3-3-2-2-2-|
  PM-|                        PM------|                             PM-|

[Verse 1]
(Guitar 1 and 2)
d|----------------------------|----------------------------|----------------------------|
A|----------------------------|----------------------------|----------------------------|
F|---------------------0-0-0--|0-0-0--0--------------------|-------0-0-0--0-0-----------|
C|---------------------4-4-4--|4-4-4--4--------------------|-------4-4-4--4-4-----------|
G|---------------------2-2-2--|2-2-2--2--------------------|-------2-2-2--2-2-----------|
D|----------------------------|----------------------------|----------------------------|
G|2-2-2--3-3-2--2-2-2---------|---------2-2--2-2-2--3-3-3--|2-2-2-------------2--2-2-2--|
  PM-----------------|                  PM-----------------------|            PM-------|

  1st, 3rd Ending                2nd Ending                        4th Ending
d|------------------------------|---------------------------------|------------------------------|
A|------------------------------|---------------------------------|------------------------------|
F|------------------------------|---------------------------------|------------------------------|
C|------------------------------|--------14-9---------------------|------------------------------|
G|------------------------------|7-10-7-------10------9--14-9-----|2-2-2--2-2-2--3---3---3---3---|
D|---------8-7-7---------5-5-3--|-----------------7-7---------10--|2-2-2--2-2-2--3---3---3---3---|
G|7-10-10---------3-3-3---------|---------------------------------|2-2-2--2-2-2--3---3---3---3---|
                                                                   PM-----------|

[Hook]
(Guitar 1 and 2)
d|---------------|
A|---------------|
F|---------------|
C|------------10-|(x4)
G|------0h7------|
D|0h7h8----h8----|
G|---------------|

                                    1st Ending                       2nd Ending
d|---------------------------------|--------------------------------|----------------------------------------|
A|---------------------------------|--------------------------------|----------------------------------------|
F|---------------------------------|--------------------------------|----------------------------------------|
C|---------------------------------|------------------------5-------|----------------------------------------|
G|------0h3---5---------0h3----5---|------0-2p0h2h3h2p0-------------|------0-2h3p2p0-2-2-2-2-2-2-3-3-3-3-3-3-|
D|0h3h7----h5---3-0h3h7-----h5---3-|0h2h3---------------2h3---3p2p0-|0h2h3-----------2-2-2-2-2-2-3-3-3-3-3-3-|
G|---------------------------------|--------------------------------|----------------2-2-2-2-2-2-3-3-3-3-3-3-|

[Verse 2]
(Guitar 1)
d|----------------------------|----------------------------|----------------------------|
A|----------------------------|----------------------------|----------------------------|
F|---------------------0-0-0--|0-0-0--0--------------------|-------0-0-0--0-0-----------|
C|---------------------4-4-4--|4-4-4--4--------------------|-------4-4-4--4-4-----------|
G|---------------------2-2-2--|2-2-2--2--------------------|-------2-2-2--2-2-----------|
D|----------------------------|----------------------------|----------------------------|
G|2-2-2--3-3-2--2-2-2---------|---------2-2--2-2-2--3-3-3--|2-2-2-------------2--2-2-2--|
  PM-----------------|                  PM-----------------------|            PM-------|

  1st, 3rd Ending                2nd Ending                        4th Ending
d|------------------------------|---------------------------------|------------------------------|
A|------------------------------|---------------------------------|------------------------------|
F|------------------------------|---------------------------------|------------------------------|
C|------------------------------|--------14-9---------------------|------------------------------|
G|------------------------------|7-10-7-------10------9--14-9-----|2-2-2--2-2-2--3---3---3-------|
D|---------8-7-7---------5-5-3--|-----------------7-7---------10--|2-2-2--2-2-2--3---3---3-------|
G|7-10-10---------3-3-3---------|---------------------------------|2-2-2--2-2-2--3---3---3-------|
                                                                   PM-----------|

(Guitar 2)
d|----------------------------|----------------------------|----------------------------|
A|----------------------------|----------------------------|----------------------------|
F|---------------------0-0-0--|0-0-0--0--------------------|-------0-0-0--0-0-----------|
C|---------------------4-4-4--|4-4-4--4--------------------|-------4-4-4--4-4-----------|
G|---------------------2-2-2--|2-2-2--2--------------------|-------2-2-2--2-2-----------|
D|----------------------------|----------------------------|----------------------------|
G|2-2-2--3-3-2--2-2-2---------|---------2-2--2-2-2--3-3-3--|2-2-2-------------2--2-2-2--|
  PM-----------------|                  PM-----------------------|            PM-------|

  1st Ending                     2nd Ending
d|------------------------------|---------------------------------|
A|------------------------------|---------------------------------|
F|------------------------------|---------------------------------|
C|------------------------------|--------14-9---------------------|
G|------------------------------|7-10-7-------10------9--14-9-----|
D|---------8-7-7---------5-5-3--|-----------------7-7---------10--|
G|7-10-10---------3-3-3---------|---------------------------------|

d|----------------------------|----------------------------|----------------------------|
A|----------------------------|----------------------------|----------------------------|
F|----------------------------|----------------------------|----------------------------|
C|----------------------------|----------------------------|----------------------------|
G|----------------------------|----------------------------|----------------------------|
D|2-2-2--2--------------------|-------2-2-2--2-2-2--3-3-3--|2-2-2--2-------------2-2-2--|
G|2-2-2--2--------------------|-------2-2-2--2-2-2--3-3-3--|2-2-2--2-------------2-2-2--|
  PM------|                           PM----------------------------|            PM----|

  1st Ending                     2nd Ending
d|------------------------------|--------------------------------|
A|------------------------------|--------------------------------|
F|------------------------------|--------------------------------|
C|------------------------------|--------------------------------|
G|------------------------------|2-2-2--2-2-2--3-----3-----------|
D|---------8-7-7---------5-5-3--|2-2-2--2-2-2--3-----3-----------|
G|7-10-10---------3-3-3---------|2-2-2--2-2-2--3-----3-----------|
                                 PM-----------|

[Bridge]
(Guitar 1 and 2)
d|----------------|----------------|----------------|
A|----------------|----------------|5---------------|
F|------------5---|----------------|----5-----------|
C|--------9-------|9---------------|--------9-------|(x12)
G|----7-----------|----7-------7---|------------7---|
D|----------------|----------------|----------------|
G|----------------|----------------|----------------|

[Build-up]
(Guitar 1 and 2)
d|--------------------------------|--------------------------------|
A|--------------------------------|--------------------------------|
F|--------------------------------|--------------------------------|
C|--------------------------------|--------------------------------|
G|7-------0---3-------------------|----3-----------3---------------|
D|7-------0---3-------------------|--------7---------------7-------|
G|7-------0---3-------------------|--------------------------------|

d|--------------------------------|--------------------------------|
A|--------------------------------|--------------------------------|
F|--------------------------------|----------------4---------------|
C|--------------------------------|--------4---------------4-------|(x2)
G|2-------0---3-------------------|----3---------------------------|
D|2-------0---3-------------------|--------------------------------|
G|2-------0---3-------------------|--------------------------------|

[Breakdown]
(Guitar 1 and 2)
d|--------------------------------|--------------------------------|
A|--------------------------------|--------------------------------|
F|--------------------------------|--------------------------------|
C|--------------------------------|--------------------------------|
G|3-------2-----------2---3---2---|----5---3---0---2br-------------|
D|2-------2-----------2---3---2---|----5---3---0---2br-------------|
G|2-------2-----------2---3---2---|----5---3---0---2br-------------|
          PM-------------|    PM------------------| bend using a floating bridge (watch playthrough video)

d|--------------------------------|--------------------------------|
A|--------------------------------|--------------------------------|
F|--------------------------------|-----------------0--------------|
C|--------------------------------|-----------------4--------------|(x2)
G|3-------2-----------2---3---2---|----5---3---0----2--------------|
D|2-------2-----------2---3---2---|----5---3---0-------------------|
G|2-------2-----------2---3---2---|----5---3---0-------------------|
          PM-------------|    PM-------------------|

***********************************

| x    Dead Note
| br   Bend Release
| N.H. Natural Harmonic
| h    Hammer-on
| p    Pull-off
| PM   Palm Mute

***********************************
Suggest correction
Creating personal tab
Creating personal tab
You can edit any tab online and save it as your Personal.

You can edit, replace or remove any tab part or add personal notes – all changes will be seen only by you.

Personal tabs can be accessed anytime from any device, even offline.
Learn more »
Give kudos to tab author, rate the tab!
1 2 3 4 5
comments
print report bad tab
1 comment total.
0 reply
LMBozovich 706 Jun 24, 2017 01:08 AM

Make sure to rate this tab

guest
You may want to rate the tab now too:
select rating
Wanna post a correction for this tab? Suggest correction