Oops, an error
Loading. Please wait.

Iron Moon tab

229 views 12 this week
2 commentsread comments
1 2 3 4 5
2 more votes to show rating
add to favorites
×
Save as Personal and add changes to this tab that will be seen only by you. Learn more ›
×
You can save this tab as Personal to edit and correct it or add notes. All changes will be seen only by you. Learn more »
launch autoscroll
font size
0
reset
how to read this tab
guitar tuner
edit
Autoscroll
slow
fast
+/-
esc
set tempo
stop
About this tab version
This is Iron Moon by Fit For An Autopsy. Ridiculously complex and technical song, using a 7-string in Drop G. Solo has a heavy emphasis on the E flat fully diminished seventh chord during the pick sweep section. Was this info helpful? Yes No
[Verse]
(Guitar 1 and 2)
d|--------------------------------|--------------------------------|
A|--------------------------------|--------------------------------|
F|--------------------------------|--------------------------------|
C|--------------------------------|--------------------------------|
G|--------------------------------|--------------------------------|
D|0---0---0-----0---0---0-0---0---|0---0-0-0-0---0---0-0---0---0-0-|
G|1---1---1-----1---1---1-1---1---|1---1-1-1-1---1---1-1---1---1-1-|
  PM--------|   PM---------|  PM   PM  PM-----|  PM-----|  PM  PM-|

d|--------------------------------|------------------------------------------------|
A|--------------------------------|------------------------------------------------|
F|--------------------------------|------------------------------------------------|
C|--------------------------------|------------------------------------------0-----|
G|--------------------------------|----------------3-----------------5---------0---|
D|----6---5-------0---0---0-0-0-0-|--0---0-0---0-----1---------------------6-------|
G|0-0---1---1-0---1---1---1-1-1-1-|--1---1-1---1-------4-1---1-0-------4/5---------|
                  PM  PM  PM-----|   PM  PM-|  PM

d|--------------------------------|--------------------------------|
A|--------------------------------|--------------------------------|
F|--------------------------------|--------------------------------|
C|--------------------------------|--------------------------------|
G|--------------------------------|--------------------------------|
D|--0---0-0-6-5-0---0---0-0---0---|0---0-0-0-0---0---0-0---0---0-0-|
G|--1---1-1-----1---1---1-1---1---|1---1-1-1-1---1---1-1---1---1-1-|
    PM-----|    PM----------| PM   PM  PM-----|  PM  PM-|  PM  PM-|

d|---------------------------------|------------------------------------------------|
A|---------------------------------|------------------------------------------------|
F|---------------------------------|------------------------------------------------|
C|---------------------------------|------------------------------------------0-----|
G|---------------------------------|----------------------------------5---------0---|
D|----6---5-------0---0---0-0------|--0---0-0---0---0---0---0-0-0-0---------6-------|
G|0-0---1---1-0---1---1---1-1---12~|--1---1-1---1---1---1---1-1-1-1-----4/5---------|
                  PM  PM  PM-|        PM  PM-|  PM  PM  PM  PM-----|

d|--------------------------------|---------------------------------|----------------------------------------|
A|--------------------------------|---------------------------------|----------------------------------------|
F|--------------------------------|---------------------------------|----------------------7-----------------|
C|--------------------------------|---------------------------------|--------------------8--------------0----|
G|--------------------------------|---------------------------------|--5-----3---------0----------4-------0--|
D|--0---0-0-6-5-0---0---0---0-----|------0-0-0-0-----0---0------0---|------1---1-----6----------------6------|
G|--1---1-1-----1---1---1---1---5\|------1-1-1-1-----0---0-12~--0---|0---0-------4~----------5--3---4--------|
    PM-----|    PM-----------|           PM-----|

[Breakdown]
(Guitar 1)
d|--------------------------------|--------------------------------|--------------------------------|
A|--------------------------------|--------------------------------|--------------------------------|
F|--------------------------------|--------------------------------|--------------------------------|
C|--------------------------------|--------------------------------|--------------------------------|
G|--------------------------------|--------------------------------|--------------------------------|
D|0-0-0-0-0-0-0-0-0---------------|----0-0-0-0-0-0-0---------------|--------0-0-0-0-0-0-0-------0---|
G|0-0-0-0-0-0-0-0-0---------------|----0-0-0-0-0-0-0---------------|--------0-0-0-0-0-0-0-------0---|
  PM---------------|                   PM-----------|                       PM-----------|      PM

d|--------------------------------|--------------------------------|--------------------------------|
A|--------------------------------|--------------------------------|--------------------------------|
F|--------------------------------|--------------------------------|--------------------------------|
C|--------------------------------|--------------------------------|--------------------------------|
G|--------------------------------|--------------------------------|--------------------------------|
D|----0-0-0-0-0-0-0-------0-------|----0-0-0-0-0-0-0-0-0-----------|--------0-------0-0-0-0-0-0-0---|
G|----0-0-0-0-0-0-0-------0-------|----0-0-0-0-0-0-0-0-0-----------|--------0-------0-0-0-0-0-0-0---|
      PM-----------|      PM           PM---------------|                   PM      PM-----------|

d|--------------------------------|--------------------------------|--------------------------------|
A|--------------------------------|--------------------------------|--------------------------------|
F|--------------------------------|--------------------------------|--------------------------------|
C|--------------------------------|--------------------------------|--------------------------------|
G|--------------------------------|--------------------------------|--------------------------------|
D|----0-------0---0---0---0-------|0-------0-0-0-0-0-0-0-0-0-------|------------0-0-0-0-0-0-0-------|
G|----0-------0---0---0---0-------|0-------0-0-0-0-0-0-0-0-0-------|------------0-0-0-0-0-0-0-------|
      PM      PM-----------|       PM      PM---------------|                   PM-----------|

d|--------------------------------|--------------------------------|--------------------------------|
A|--------------------------------|--------------------------------|--------------------------------|
F|--------------------------------|--------------------------------|--------------------------------|
C|--------------------------------|--------------------------------|--------------------------------|
G|--------------------------------|--------------------------------|--------------------------------|
D|----------------0-0-0-0-0-0-0---|----0---0-0-0-0-0-0-0-0---------|0-----------0-0-0-0-0-0-0-------|
G|----------------0-0-0-0-0-0-0---|----0---0-0-0-0-0-0-0-0---------|0-----------0-0-0-0-0-0-0-------|
                  PM-----------|       PM  PM-------------|         PM          PM-----------|

d|--------------------------------|--------------------------------|
A|--------------------------------|--------------------------------|
F|--------------------------------|--------------------------------|
C|--------------------------------|--------------------------------|
G|--------------------------------|--------------------------------|
D|----------------0-------0-0-0-0-|0-0-0-------0-------0---0---0---|
G|----------------0-------0-0-0-0-|0-0-0-------0-------0---0---0---|
                  PM      PM------------|      PM      PM----------|

[Hook]
(Guitar 1)
d|--------------------------------|--------------------------------|--------------------------------|
A|--------------------------------|--------------------------------|--------------------------------|
F|--------------------------------|--------------------------------|--------------------------------|
C|--------------------------------|--------------------------------|--------------------------------|
G|--------------------------------|--------------------------------|--------------------------------|
D|0-------------------------------|0-0-0-----------------------0-0-|0---------------------------0-0-|
G|0-------------------------------|0-0-0-----------------------0-0-|0---------------------------0-0-|
  PM-----------------------------------------------------------------------------------------------|

d|--------------------------------|------------------------------------------------|
A|--------------------------------|------------------------------------------------|
F|--------------------------------|------------------------------------------------|
C|--------------------------------|------------------------------------------------|
G|--------------------------------|------------------------------------------------|
D|0---0-0-0-----------------------|------------------------0-0-0-0-0-0-------------|
G|0---0-0-0-----------------------|------------------------0-0-0-0-0-0-------------|
  PM  PM---|                                               PM---------|

(Guitar 2)
d|----------------------------------|------------------------------------|
A|----------------------------------|------------------------------------|
F|----------------------------------|------------------------------------|
C|----------------------------------|------------------------------------|
G|----------------------------------|------------------------------------|
D|----------6-6---------------10-10-|10-------12-12-12-------------------|
G|0-0-0---0-------0-0-0---0---------|-----0--------------6-6-6---4-4-4---|

d|--------------------------------|--------------------------------|
A|--------------------------------|--------------------------------|
F|--------------------------------|--------------------------------|
C|--------------------------------|--------------------------------|(x2)
G|--------------------------------|--------------------------------|
D|--------6-6-6-------------------|----5-5-5-----------------------|
G|0-0-0-----------0---5-5-5---4-4-|4-----------1-1-1---0-0-0-0-0-0-|

(Guitar 1 and 2)
d|----------------------------------|------------------------------------|
A|----------------------------------|------------------------------------|
F|----------------------------------|------------------------------------|
C|----------------------------------|------------------------------------|
G|----------------------------------|------------------------------------|
D|----------6-6---------------10-10-|10-------12-12-12-------------------|
G|0-0-0---0-------0-0-0---0---------|-----0--------------6-6-6---4-4-4---|

                                   1st Ending                       2nd Ending
d|--------------------------------|--------------------------------|--------------------------------|
A|--------------------------------|--------------------------------|--------------------------------|
F|--------------------------------|--------------------------------|--------------------------------|
C|--------------------------------|--------------------------------|----------------------------8-8-|
G|--------------------------------|--------------------------------|--------------------------------|
D|--------6-6-6-------------------|----5-5-5-----------------------|----5-5-5-------------------6-6-|
G|0-0-0-----------0---5-5-5---4-4-|4-----------1-1-1---0-0-0-0-0-0-|4-----------1-1-1---0-0-0-0-----|

d|----------------------------------|------------------------------------|--------------------------------|
A|----------------------------------|------------------------------------|--------------------------------|
F|----------------------------------|------------------------------------|--------------------------------|
C|7\--------------------------------|------------------------------------|--------------------------------|
G|----------------------------------|------------------------------------|--------------------------------|
D|5\--------------------------10-10-|10-------12-12-12---6-6-6-----------|--------------------------------|
G|----------------0-0-0-0-0-0-------|-----0----------------------4-4-4---|0-0-0---5-5-5---0---5-5-5---4-4-|

d|--------------------------------|---------------------------------|------------------------------------|
A|--------------------------------|---------------------------------|------------------------------------|
F|--------------------------------|---------------------------------|------------------------------------|
C|--------------------------------|---------------------------------|------------------------------------|
G|--------------------------------|---------------------------------|------------------------------------|
D|----5-5-5-----------------------|--------6-6-6---------------10-10|10-------12-12-12---6-6-6-----------|
G|4-----------1-1-1---0-0-0-0-0-0-|0-0-0-----------0-0-0---0--------|-----0----------------------4-4-4---|

d|--------------------------------|--------------------------------|
A|--------------------------------|--------------------------------|
F|--------------------------------|--------------------------------|
C|--------------------------------|--------------------------------|
G|--------------------------------|--------------------------------|
D|--------6-6-6-------------------|----5-5-5-----------------------|
G|0-0-0-----------0---5-5-5---4-4-|4-----------1-1-1---0-0-0-0-0-0-|


[Break]
(Guitar 1 and 2)
d|--------------------------------|--------------------------------|
A|--------------------------------|--------------------------------|
F|--------------------------------|--------------------------------|
C|--------------------------------|--------------------------------|
G|--------------------------------|--------------------------------|
D|----------------0---0---0-------|--------0---0---0---------------|
G|5-5-5-5b6-6-6-6-0---0---0---5-5-|5b6-6-6-0---0---0---5-5-5b6-6-6-|

  1st Ending
d|--------------------------------|--------------------------------|
A|--------------------------------|--------------------------------|
F|--------------------------------|--------------------------------|
C|----------------8---7-------6---|----7---6-----------------------|
G|--------------------------------|--------------------------------|
D|0---5---4---0---6---5---0---4---|0---5---4---0---4---0---1---0---|
G|0---5---4---0-----------0-------|0-----------0---4---0---1---0---|

  2nd Ending
d|--------------------------------|--------------------------------|
A|--------------------------------|--------------------------------|
F|----------------------------3---|----3---3-------3-------3-------|
C|----------------8---7-------7---|----7---7-------7-------7-------|
G|--------------------------------|--------------------------------|
D|0---5---4---0---6---5---0-------|0-----------0-------0-------0---|
G|0---4---4---0-----------0-------|0-----------0-------0-------0---|


[Solo]
(Guitar 1)
d|--------------------------------|--------------------------------|
A|--------------------------------|--------------------------------|
F|--------------------------------|--------------------------------|
C|--------------------------------|--------------------------------|
G|--------------------------------|--------------------------------|
D|----------------0---0---0-------|--------0---0---0---------------|
G|5-5-5-5b6-6-6-6-0---0---0---5-5-|5b6-6-6-0---0---0---5-5-5b6-6-6-|
  Gradually bend each time

  1st Ending
d|--------------------------------|--------------------------------|
A|--------------------------------|--------------------------------|
F|--------------------------------|--------------------------------|
C|----------------8---7-------6---|----7---6-----------------------|
G|--------------------------------|--------------------------------|
D|0---5---4---0---6---5---0---4---|0---5---4---0---4---0---1---0---|
G|0---5---4---0-----------0-------|0-----------0---4---0---1---0---|

  2nd Ending
d|--------------------------------|--------------------------------|
A|--------------------------------|--------------------------------|
F|----------------------------3---|--------------------------------|
C|----------------8---7-------7---|--------------------------------|
G|--------------------------------|--------------------------------|
D|0---5---4---0---6---5---0-------|0-------0-------0-------0-------|
G|0---4---4---0-----------0-------|0-------0-------0-------0-------|

(Guitar 2)
d|-------------------|--------------------|---------10-13p10-------|---------13-16p13-------|
A|13b15-----16b18----|19b21-----22b24-----|------12----------12----|------15----------15----|
F|-------------------|--------------------|10h13----------------13-|13h16----------------16-|
C|-------------------|--------------------|------------------------|------------------------|
G|-------------------|--------------------|------------------------|------------------------|
D|-------------------|--------------------|------------------------|------------------------|
G|-------------------|--------------------|------------------------|------------------------|

d|---------16-19p16-------|---------19-22p19-------|17-17-16-16-17-17-------------------------------|
A|------18----------18----|------21----------21----|------------------17-17-18-18-15-15-17-17-14-14-|
F|16h19----------------19-|19h22----------------22-|------------------------------------------------|
C|------------------------|------------------------|------------------------------------------------|
G|------------------------|------------------------|------------------------------------------------|
D|------------------------|------------------------|------------------------------------------------|
G|------------------------|------------------------|------------------------------------------------|

d|---------------------------------12-10---10-|-----------------------------------------------|------------|
A|15-15-11-11-14-14-11---10---11---------14---|14-11-10----11-10----11-10---------------------|------------|
F|--------------------------------------------|---------12-------12-------12-10-9-10----------|------------|
C|--------------------------------------------|--------------------------------------12-10-12-|10b12~------|
G|--------------------------------------------|-----------------------------------------------|------------|
D|--------------------------------------------|-----------------------------------------------|------------|
G|--------------------------------------------|-----------------------------------------------|------------|

************************************

| ~   vibrato
| b   bend
| h   hammer-on
| /   slide up
| \   slide down
| PM  Palm Mute

************************************

            
            
Suggest correction
Creating personal tab
Creating personal tab
You can edit any tab online and save it as your Personal.

You can edit, replace or remove any tab part or add personal notes – all changes will be seen only by you.

Personal tabs can be accessed anytime from any device, even offline.
Learn more »
Give kudos to tab author, rate the tab!
1 2 3 4 5
comments
print report bad tab
2 comments total.
0 reply
LMBozovich 959 Jun 01, 2017 11:40 AM

KonstaninBond, stop changing my stuff!

0 reply
LMBozovich 959 Jun 24, 2017 01:11 AM

Guys, gals, thanks for viewing this tab. Make sure to rate.

guest
You may want to rate the tab now too:
select rating
Wanna post a correction for this tab? Suggest correction