Oops, an error
Loading. Please wait.

Murder In The First tab

91 views 3 this week
1 commentread comment
1 2 3 4 5
3 more votes to show rating
add to favorites
×
Save as Personal and add changes to this tab that will be seen only by you. Learn more ›
×
You can save this tab as Personal to edit and correct it or add notes. All changes will be seen only by you. Learn more »
launch autoscroll
font size
0
reset
how to read this tab
guitar tuner
edit
Autoscroll
slow
fast
+/-
esc
set tempo
stop
About this tab version
Fair warning, not all of the tab will be 100 percent accurate, as the only thing to go on for tabbing this song at the moment are live videos, and playing by ear. Any and all input on how to improve this tab is greatly appreciated. Was this info helpful? Yes No
Tuning = 7-String Drop G (GDGCFAd)

[Intro]
(Guitar 1 and 2)
d|---------------------------------|-----------------------------------|
A|---------------------------------|-----------------------------------|
F|---------------------------------|-----------------------------------|
C|---------------------------------|-----------------------------------|
G|5-------5--/8---8--\7---11-------|12---11---11--\7---7--/8---4-------|
D|---------------------------------|-----------------------------------|
G|----5---5--/8---8--\7---11-------|12---11---11--\7---7--/8---4-------|

d|--------------------------------|--------------------------------|
A|--------------------------------|--------------------------------|
F|--------------------------------|--------------------------------|
C|--------------------------------|--------------------------------|
G|8---------------4---------------|7---5---4-------5---1---0-------|
D|8---------------4---------------|7---5---4-------5---1---0-------|
G|8---------------4---------------|7---5---4-------5---1---0-------|
                                                   PM-------|

[Verse Part 1]
(Guitar 1)                                     1st Ending                        2nd Ending
d|--------------|--------------|--------------|---------------------------------|----------------------------|
A|--------------|--------------|--------------|---------------------------------|----------------------------|
F|--------------|--------------|--------------|---------------------------------|----------------------------|
C|------19-19~--|------19-19~--|------19-19~--|---------------------------------|----------------------------|
G|0---0---------|0---0---------|0---0---------|5-------5--/8---8--\7---11-------|5-------5--/8---8--\4---4---|
D|0---0-17-17~--|0---0-17-17~--|0---0-17-17~--|---------------------------------|----------------------------|
G|0---0---------|0---0---------|0---0---------|----5---5--/8---8--\7---11-------|----5---5--/8---8--\4---4---|

d|--------------|--------------|--------------|
A|--------------|--------------|--------------|
F|--------------|--------------|--------------|
C|------19-19~--|------19-19~--|------19-19~--|
G|0---0---------|0---0---------|0---0---------|
D|0---0-17-17~--|0---0-17-17~--|0---0-17-17~--|
G|0---0---------|0---0---------|0---0---------|

d|---------------------------------|--------------------------------|
A|---------------------------------|--------------------------------|
F|---------------------------------|--------------------------------|
C|---------------------------------|--------------------------------|
G|5-------5--/8---8--\7---11-------|12-------11---7---7---8---4-----|
D|---------------------------------|--------------------------------|
G|----5---5--/8---8--\7---11-------|12-------11---7---7---8---4-----|

(Guitar 2)                               1st Ending                        2nd Ending
d|------------|------------|------------|---------------------------------|--------------------------------|
A|------------|------------|------------|---------------------------------|--------------------------------|
F|------------|------------|------------|---------------------------------|--------------------------------|
C|------7-7~--|------7-7~--|------7-7~--|---------------------------------|--------------------------------|
G|0---0-------|0---0-------|0---0-------|5-------5--/8---8--\7---11-------|5-------5--/8---8--\4---4-------|
D|0---0-5-5~--|0---0-5-5~--|0---0-5-5~--|---------------------------------|--------------------------------|
G|0---0-------|0---0-------|0---0-------|----5---5--/8---8--\7---11-------|----5---5--/8---8--\4---4-------|

d|------------|------------|------------|
A|------------|------------|------------|
F|------------|------------|------------|
C|------7-7~--|------7-7~--|------7-7~--|
G|0---0-------|0---0-------|0---0-------|
D|0---0-5-5~--|0---0-5-5~--|0---0-5-5~--|
G|0---0-------|0---0-------|0---0-------|

d|---------------------------------|--------------------------------|
A|---------------------------------|--------------------------------|
F|---------------------------------|--------------------------------|
C|---------------------------------|--------------------------------|
G|5-------5--/8---8--\7---11-------|12---11--11---7---7---8---4-----|
D|---------------------------------|--------------------------------|
G|----5---5--/8---8--\7---11-------|12---11--11---7---7---8---4-----|

d|--------------------------------|--------------------------------|
A|--------------------------------|--------------------------------|
F|--------------------------------|--------------------------------|
C|--------------------------------|--------------------------------|
G|8---------------4---------------|--------------------------------|
D|8---------------4---------------|0---0---0-----------------------|
G|8---------------4---------------|1---1---1-----------------------|


[Verse Part 2]

d|--------------------------------|----------------------------------|
A|--------------------------------|----------------------------------|
F|--------------------------------|----------------------------------|
C|------------6-------8---7-------|8-------9---------------20---19---|
G|--------5-8---8-5-0-5---4-------|------------------------17---16---|
D|0---5-8---------------------0---|--7-6-7---8-7-8-0---0-------------|
G|0---------------------------0---|----------------0---0-------------|

d|----------------------------------|--------------------------------------|--------------------------------|
A|----------------------------------|--------------------------------------|--------------------------------|
F|----------------------------------|--------------------------------------|----------------3-3-3-3-3-3-3-3-|
C|------------------8-7---7-------7-|8-7---------8--8--8-------7--7--7-----|----------------7-7-7-7-7-7-7-7-|
G|12-----13-------------------------|--------------------------------------|--------------------------------|
D|9------10---0-0-0---------0-------|----0---0---6--6--6-0---0-5--5--5-0---|0---0-0-0-0-0-0-----------------|
G|------------0-0-0-----6---0---6---|----0---0-----------0---0---------0---|0---0-0-0-0-0-0-----------------|

d|--------------------------------|--------------------------------|----------------|
A|--------------------------------|--------------------------------|----------------|
F|--------------------------------|3-3-3-3-3-3-3-3-----------------|------------3---|
C|--------------------------------|7-7-7-7-7-7-7-7-----------------|------------7---|
G|0---0---1---0-------------------|----------------0---0---1---0---|5--\4---4-------|
D|0---0---1---0---0---0-0-0-0-0-0-|----------------0---0---1---0---|5--\4---4-------|
G|0---0---1---0---0---0-0-0-0-0-0-|----------------0---0---1---0---|5--\4---4-------|


[Verse Part 3]
(Guitar 1 and 2)
d|-----------------------------------------|-----------------------------------------------------|
A|-----------------------------------------|-----------------------------------------------------|
F|-------------3-3-3-3-3-3-3-3-------------|-------------3-3-3-3-3-3-3-3----------------------3--|
C|-------------7-7-7-7-7-7-7-7-------------|-------------7-7-7-7-7-7-7-7----------------------7--|(x2)
G|0--0--1--0-------------------0--0--1--0--|0--0--1--0-------------------0--0--1--0--5-\4--4-----|
D|0--0--1--0-------------------0--0--1--0--|0--0--1--0-------------------0--0--1--0--5-\4--4-----|
G|0--0--1--0-------------------0--0--1--0--|0--0--1--0-------------------0--0--1--0--5-\4--4-----|


[Verse Part 4]
(Guitar 1and 2)
d|--------------------------------|--------------------------------|
A|--------------------------------|--------------------------------|
F|4-----------4-----------4-------|3-----------3-----------3-------|
C|8-----------8-----------8-------|7-----------7-----------7-------|
G|----5---4-------5---4-------5---|----4---1-------4---1-------4---|
D|----5---4-------5---4-------5---|----4---1-------4---1-------4---|
G|----5---4-------5---4-------5---|----4---1-------4---1-------4---|


  1st Ending
d|--------------------------------|--------------------------------|
A|--------------------------------|--------------------------------|
F|4-----------4-----------4-------|3-------------------6-7-6-------|
C|8-----------8-----------8-------|7---------------7-8-------8-7-5-|
G|----5---4-------5---4-------5---|----4---1---0-------------------|
D|----5---4-------5---4-------5---|----4---1---0-------------------|
G|----5---4-------5---4-------5---|----4---1---0-------------------|

  2nd Ending
d|--------------------------------|----------------------------------------|
A|--------------------------------|----------------------------12-13-12----|
F|4-----------4-----------4-------|----6-7-6----------------13----------13-|
C|8-----------8-----------8-------|7-8-------8-7-5-------14----------------|
G|----5---4-------5---4-------5---|----------------12-15-------------------|
D|----5---4-------5---4-------5---|----------------------------------------|
G|----5---4-------5---4-------5---|----------------------------------------|



[Hook 1]
(Guitar 1 and 2)
d|--------------------------------|--------------------------------|
A|--------------------------------|--------------------------------|
F|--------------------------------|--------------------------------|
C|--------------------------------|--------------------------------|
G|--------------------------------|--------------------------------|
D|----------------6-6-6-6---------|----------------5-5-5-5---------|
G|5-5-5-5-4-4-4-4---------4-4-4-4-|4-4-4-4-1-1-1-1---------0-0-0-0-|

d|--------------------------------|--------------------------------|
A|--------------------------------|--------------------------------|
F|--------------------------------|--------------------------------|
C|--------------------------------|--------------------------------|
G|--------------------------------|--------8-8-8-8---------7-7-7-7-|
D|----------------6-6-6-6---------|6-6-6-6---------5-5-5-5---------|
G|5-5-5-5-4-4-4-4---------4-4-4-4-|--------------------------------|

d|--------------------------------|--------------------------------|
A|--------------------------------|--------------------------------|
F|--------------------------------|--------------------------------|
C|--------------------------------|--------------------------------|
G|--------------------------------|--------------------------------|
D|----------------6-6-6-6---------|----------------5-5-5-5---------|
G|5-5-5-5-4-4-4-4---------4-4-4-4-|4-4-4-4-1-1-1-1---------0-0-0-0-|

d|--------------------------------|--------------------------------|
A|--------------------------------|--------------------------------|
F|--------------------------------|--------------------------------|
C|--------------------------------|------------------------8-7---7-|
G|--------------------------------|--------8-8-8-8-----------------|
D|----------------6-6-6-6---------|6-6-6-6---------5-5-5-5-----6---|
G|5-5-5-5-4-4-4-4---------4-4-4-4-|--------------------------------|

d|--------------------------------|----------------------------------|
A|--------------------------------|----------------------------------|
F|--------------------------------|----------------------------------|
C|------------6-------8---7-------|8-------9---------------20---19---|
G|--------5-8---8-5-0-5---4-------|------------------------17---16---|
D|0---5-8---------------------0---|--7-6-7---8-7-8-0---0-------------|
G|0---------------------------0---|----------------0---0-------------|

d|----------------------------------|--------------------------------------|
A|----------------------------------|--------------------------------------|
F|----------------------------------|--------------------------------------|
C|------------------8-7---7-------7-|8-7---------8--8--8-------7--7--7-----|
G|12-----13-------------------------|--------------------------------------|
D|9------10---0-0-0---------0-------|----0---0---6--6--6-0---0-5--5--5-0---|
G|------------0-0-0-----6---0---6---|----0---0-----------0---0---------0---|


[Break]
(Guitar 1)
d|----------------------------------------|
A|----------------------------------------|
F|----------------------------------------|
C|----------------------------------------|
G|----------------------------------------|
D|0---------------------------------------|
G|0---------------------------------------|

(Guitar 2)
d|----------------------------------------|
A|----------------------------------------|
F|----------------------------------------|
C|----------------------------------------|
G|----------------------------------------|
D|0-------0---6-6-0---0---5-5-0---0-------|
G|0-------0-------0---0-------0---0-------|


[Breakdown 1]
(Guitar 1 and 2)
d|--------------------------------|--------------------------------|
A|--------------------------------|--------------------------------|
F|--------------------------------|--------------------------------|
C|--------------------------------|--------------------------------|(x8)
G|--------------------------------|--------------------------------|
D|0---6-6-0---0---5-5-0---0-------|0---6-6-0---0---5-5-0---0-------|
G|0-------0---0-------0---0-------|0-------0---0-------0---0-------|


[Hook 2]
(Guitar 1 and 2)
d|--------------------------------|--------------------------------|
A|--------------------------------|--------------------------------|
F|--------------------------------|--------------------------------|
C|--------------------------------|--------------------------------|
G|--------------------------------|--------------------------------|
D|----------------6-6-6-6---------|----------------5-5-5-5---------|
G|5-5-5-5-4-4-4-4---------4-4-4-4-|4-4-4-4-1-1-1-1---------0-0-0-0-|

d|--------------------------------|--------------------------------|
A|--------------------------------|--------------------------------|
F|--------------------------------|--------------------------------|
C|--------------------------------|--------------------------------|
G|--------------------------------|--------8-8-8-8---------7-7-7-7-|
D|----------------6-6-6-6---------|6-6-6-6---------5-5-5-5---------|
G|5-5-5-5-4-4-4-4---------4-4-4-4-|--------------------------------|

d|--------------------------------|--------------------------------|
A|--------------------------------|--------------------------------|
F|--------------------------------|--------------------------------|
C|--------------------------------|--------------------------------|
G|--------------------------------|--------------------------------|
D|----------------6-6-6-6---------|----------------5-5-5-5---------|
G|5-5-5-5-4-4-4-4---------4-4-4-4-|4-4-4-4-1-1-1-1---------0-0-0-0-|

d|--------------------------------|--------------------------------|
A|--------------------------------|--------------------------------|
F|--------------------------------|--------------------------------|
C|--------------------------------|------------------------8-7---7-|
G|--------------------------------|--------8-8-8-8-----------------|
D|----------------6-6-6-6---------|6-6-6-6---------5-5-5-5-----6---|
G|5-5-5-5-4-4-4-4---------4-4-4-4-|--------------------------------|


                                   Cast into the fire, watch them burn alive!
d|--------------------------------|----------------------------------|
A|--------------------------------|----------------------------------|
F|--------------------------------|----------------------------------|
C|------------6-------8---7-------|----------------------------------|
G|--------5-8---8-5-0-5---4-------|----------------------------------|
D|0---5-8---------------------0---|----------------------------------|
G|0---------------------------0---|----------------------------------|


[Breakdown 2]
(Guitar 1 and 2)
d|--------------------------------|--------------------------------|
A|--------------------------------|--------------------------------|
F|--------------------------------|--------------------------------|
C|--------------------------------|--------------------------------|(x3)
G|--------------------------------|--------------------------------|
D|0-0-0-0----0-0-0-0--------0-0-0-|0---0-------0-0-0-0----0-0-0-0--|
G|0-0-0-0----0-0-0-0--------0-0-0-|0---0-------0-0-0-0----0-0-0-0--|
  PM-----|   PM-----|       PM------|  PM      PM-----|   PM-----|

d|--------------------------------|---------------------------------|
A|--------------------------------|---------------------------------|
F|--------------------------------|---------------------------------|
C|--------------------------------|---------------------------------|
G|--------------------------------|5-------5--/8---8---7---11-------|
D|0-0-0-0----0-0-0-0--------0-0-0-|---------------------------------|
G|0-0-0-0----0-0-0-0--------0-0-0-|----5---5--/8---8---7---11-------|
  PM-----|   PM-----|       PM---|

d|--------------------------------|--------------------------------|
A|--------------------------------|--------------------------------|
F|--------------------------------|--------------------------------|
C|--------------------------------|--------------------------------|(x3)
G|--------------------------------|--------------------------------|
D|0-0-0-0----0-0-0-0--------0-0-0-|0---0-------0-0-0-0----0-0-0-0--|
G|0-0-0-0----0-0-0-0--------0-0-0-|0---0-------0-0-0-0----0-0-0-0--|
  PM-----|   PM-----|       PM------|  PM      PM-----|   PM-----|

d|--------------------------------|---------------------------------|
A|--------------------------------|---------------------------------|
F|--------------------------------|---------------------------------|
C|--------------------------------|---------------------------------|
G|--------------------------------|5-------5--/8---8---7---11-------|
D|0-0-0-0----0-0-0-0--------0-0-0-|---------------------------------|
G|0-0-0-0----0-0-0-0--------0-0-0-|----5---5--/8---8---7---11-------|
  PM-----|   PM-----|       PM---|

d|-----------------------------------|--------------------------------|
A|-----------------------------------|--------------------------------|
F|-----------------------------------|--------------------------------|
C|-----------------------------------|--------------------------------|
G|12---11---11--\7---7---8---4-------|8-------4-----------------------|
D|-----------------------------------|8-------4----------0---0---0----|
G|12---11---11--\7---7---8---4-------|8-------4----------1---1---1----|
                                                         PM----------|

*************************************

| PM  palm mute
| /   slide up
| \   slide down
| ~   vibrato

*************************************
Suggest correction
Creating personal tab
Creating personal tab
You can edit any tab online and save it as your Personal.

You can edit, replace or remove any tab part or add personal notes – all changes will be seen only by you.

Personal tabs can be accessed anytime from any device, even offline.
Learn more »
Give kudos to tab author, rate the tab!
1 2 3 4 5
comments
print report bad tab
1 comment total.
0 reply
LMBozovich 706 Jun 24, 2017 01:15 AM

Guys, gals, thanks for viewing this tab. Make sure to rate.

guest
You may want to rate the tab now too:
select rating
Wanna post a correction for this tab? Suggest correction