Oops, an error
Loading. Please wait.

Salt Wound tab

1,846 views 3 this week
12 commentsread comments
1 2 3 4 5
x 7
add to favorites
×
Save as Personal and add changes to this tab that will be seen only by you. Learn more ›
×
You can save this tab as Personal to edit and correct it or add notes. All changes will be seen only by you. Learn more »
launch autoscroll
font size
0
reset
how to read this tab
guitar tuner
edit
Autoscroll
slow
fast
+/-
esc
set tempo
stop
About this tab version
Complaints about "Artificial" instead of "Natural" harmonic. Because sometimes people write the wrong word. Was this info helpful? Yes No
OK so, I'm gonna start off by saying that no, there is no solo in this tab.  It took me a couple hours to make
this.  Everything from this tab was literally copied from the GuitarWorld play through video on YouTube.  
This is one of my favorite songs off the album, there is a video of them playing it and nobody has yet to tab
this song.  FFAA has like 3 other songs tabbed and that's a damn shame.  None the less I just didn't really
wanna spend a whole lot more time on this.  I will either tab the solo another day or someone else can 
contribute to this one.  Thank you and have fun with this.  Pretty easy song, honestly.

Drop A (AEADGBE)

There are notes all over for this tab.

Enjoy!

 
[Intro]

E|------------------------------------------------------------------------------------|
B|------------------------------------------------------------------------------------|
G|---------------------------------4--------------------------------4-4---------------|
D|---------------------------------4--------------------------------4-4---------------|
A|----------2------------------2--(2)------------2------------------2-3---------------|
E|----------2------------------2--(2)------------2------------------2-3---------------|
A|--777777772--77777777777777772--(2)----777777772--77777777777777772-3-555555555555--|
                               *  (Let Ring)

E|---------------------------------------------------------------------------------|
B|---------------------------------------------------------------------------------|
G|---------------------------------4--------------------------------4---4----------|
D|---------------------------------4--------------------------------4---4----------|
A|----------2------------------2--(2)------------2------------------2---3---2---3--|
E|----------2------------------2--(2)------------2------------------2---3---2---3--|
A|--777777772--77777777777777772--(2)----777777772--77777777777777772---3---5---3--|
                               *  (Let Ring)


[Verse]

E|----------------------------------------------------------------------------------|
B|----------------------------------------------------------------------------------|
G|----------------------------------------------------------------------------------|
D|----------------------------------------------------------------------------------|
A|----------------------------------------------------------------------------------|
E|--------2----------5----3---------------5------2----------5----3---------------5--|
A|--222222-2222222222-2222-22222222-3-2222-222222-2222222222-2222-22222222-3-2222---|
pm  ...... .......... .... ........   .... ...... .......... .... ........   ....
                                    *   (The space is there to see the 3)  *

E|---------------------------------------------------------------------------------------------|
B|---------------------------------------------------------------------------------------------|
G|---------------------------------------------------------------------------------------------|
D|---------------------------------------------------------------------------------------------|
A|---------------------------------------------------------------------------------------------|
E|--------3----------5----3------------------7777777------2--------3----2--------------[3333]--|
A|--777777-7777777777-7777-77777777-10-777777-------555555-55555555-5555-55555555333333--------|
pm  ...... .......... .... ........    ......       ...... ........ .... .............. ****
                                                                                      (Natural Harmonic)

E|------------------------------------------------------------------------------|
B|------------------------------------------------------------------------------|
G|------------------------------------------------------------------------------|
D|------------------------------------------------------------------------------|
A|------------------------------------------------------------------------------|
E|--------2----------5----3-------------3------2----------5----3-------------3--|
A|--222222-2222222222-2222-22222222-3br--222222-2222222222-2222-22222222-3br----|
pm  ...... .......... .... ........      ...... .......... .... ........ 

E|---------------------------------------------------------------------------------------------|
B|---------------------------------------------------------------------------------------------|
G|---------------------------------------------------------------------------------------------|
D|---------------------------------------------------------------------------------------------|
A|-------------------------------------------------------------------------------------333-----|
E|--------3----------5----3------------------7777777------2--------3----2--------------333-----|
A|--777777-7777777777-7777-77777777-10-777777-------555555-55555555-5555-55555555333333--------|
pm  ...... .......... .... ........    ......       ...... ........ .... ..............


[Chorus x2]

E|-------------------------------------------------------------------|
B|----------------------------0-------------------------------0-(0)--|
G|----------------------------0----------------------------------0---|
D|-------------------------------------------------------------------|
A|--7--\3----/7-7-7-7--\2-2--(2)----/7--\3----/7-7-7-7--\2-2-(2)-----|
E|-------------------------------------------------------------------|
A|--7--\3----/7-7-7-7--\2-2--(2)----/7--\3----/7-7-7-7--\2-2-(2)-----|

  (Strum every note.  Strum as you slide into it.  You'll see what I mean when you listen to it.)


[Bridge x2]

E|---------------------------------------------------------------|
B|---------------------------------------------------------------|
G|---------------------------------------------------------------|
D|---------------------------------------------------------------|
A|------------------------2h3p2h3--------------------------------|
E|--2-2-2-2-2-3-2-2-2-2-2-2h3p2h3-2-2-2-2-2-3-2-2-2-2-2-7-7-3-3--|
A|--2-2-2-2-2-3-2-2-2-2-2---------2-2-2-2-2-3-2-2-2-2-2-7-7-3-3--|
pm    . .   .   .   .   .           . .   .   .   .   .


E|---------------------------------------------------------------|
B|---------------------------------------------------------------|
G|---------------------------------------------------------------|
D|---------------------------------------------------------------|
A|------------------------2h3p2h3--------------------------------|
E|--2-2-2-2-2-3-2-2-2-2-2-2h3p2h3-2-2-2---5---3-3---3-3----------|
A|--2-2-2-2-2-3-2-2-2-2-2---------2-2-2-5-5-3-3-3-3-3-3----------|
pm    . .   .   .   .   .           . .   .   . .   . .

[Plays 2 bars before, during, and after solo]

E|----------------------------------------------------|x5
B|----------------------------------------------------|
G|----------------------------------------------------|
D|----------------------------------------------------|
A|------3~---------3~---------2~----------------------|
E|---------------------------------------2~--------0--|
A|--2----------0----------3----------5---------3------|


E|-----------------------------------------|6th time
B|-----------------------------------------|
G|-----------------------------------------|
D|-----------------------------------------|
A|------3~---------3~---------2~-----------|
E|-----------------------------------------|
A|--2----------0----------3----------5~~~--|


[Breakdown x2]  
(pick scrapes between 4th and 5th fret)

E|-----------x----------------x----------------x-----------------------|
B|------------x----------------x----------------x----------------------|
G|-------------x----------------x----------------x---------------------|
D|--------------x----------------x----------------x--------------------|
A|--3--3-3-3-----x----3--3333-----x----3--3-3-3----x----------------3--|
E|--2--2-2-2------x-0-2--2222------x-0-2--2-2-2-----x-0-------------2--|
A|--2--2-2-2--------0-2--2222--------0-2--2-2-2-------0-3br-3br-3br-2--|
pm     . . .        .    ....        .    . . .       .

E|------------x----------------x----------------x-----------------------|
B|-------------x----------------x----------------x----------------------|
G|--------------x----------------x----------------x---------------------|
D|---------------x----------------x----------------x--------------------|
A|-3-3--3-3-3-----x----3--3333-----x----3--3-3-3----x----------------3--|
E|-2-2--2-2-2------x-0-2--2222------x-0-2--2-2-2-----x-0-------------2--|
A|-2-2--2-2-2--------0-2--2222--------0-2--2-2-2-------0-3br-3br-3br-2--|
pm      . . .        .    ....        .    . . .       .

[Chorus/Outro x4]

E|-------------------------------------------------------------------|
B|----------------------------0-------------------------------0-(0)--|
G|----------------------------0----------------------------------0---|
D|-------------------------------------------------------------------|
A|--7--\3----/7-7-7-7--\2-2--(2)----/7--\3----/7-7-7-7--\2-2-(2)-----|
E|-------------------------------------------------------------------|
A|--7--\3----/7-7-7-7--\2-2--(2)----/7--\3----/7-7-7-7--\2-2-(2)-----|


[End]



************************************

| x    Dead note
| (n)  Ghost note
| h    Hammer-on
| p    Pull-off
| br   Bend release
| /    Slide up
| \    Slide down
| ~    Vibrato 

************************************

            
            
Suggest correction
Creating personal tab
Creating personal tab
You can edit any tab online and save it as your Personal.

You can edit, replace or remove any tab part or add personal notes – all changes will be seen only by you.

Personal tabs can be accessed anytime from any device, even offline.
Learn more »
comments
print report bad tab
12 comments total. Showing first comments.
0 reply
damian_91 223 Aug 23, 2016 08:43 PM

hey man nice tab,

I think the first bit is rather played like

E|---------------------------- ...
B|---------------------------- ...
G|---------------------------- ...
D|---------------------------- ...
A|----------2------------------2- ...
E|--333333332--33333333333333332-- ...
A|--777777772--77777777777777772- ...

and then

A|... ---------2------------------2-3---------------|
E|... -333333332--33333333333333332-3-222222222222--|
A|... -777777772--77777777777777772-3-555555555555--|

cheers

0 reply
mrgoldylocks 85 Sep 24, 2016 11:43 AM

I actually went back and watched the video and you're absolutely right.

0 reply
LMBozovich 1,136 May 30, 2017 09:07 PM

The harmonics on the verse are actually Natural Harmonics. Artificial harmonics involve using natural harmonics, but resting a finger/thumb on the other hand, on the same string in the same manor, and pluck simultaneously. It's a way to get the guitar to play any harmonic on the fretboard, and play some harmonics past that point.

guest
You may want to rate the tab now too:
select rating
Wanna post a correction for this tab? Suggest correction