Oops, an error
Loading. Please wait.

Still We Destroy tab

67 views 9 this week
4 commentsread comments
1 2 3 4 5
2 more votes to show rating
add to favorites
×
Save as Personal and add changes to this tab that will be seen only by you. Learn more ›
×
You can save this tab as Personal to edit and correct it or add notes. All changes will be seen only by you. Learn more »
launch autoscroll
font size
0
reset
how to read this tab
guitar tuner
edit
Autoscroll
slow
fast
+/-
esc
set tempo
stop
About this tab version
Normal 4/4 time, C Phrygian Dominant, tasty riffs, this song is one of the heaviest and one of the most popular among its brethren. This is the moment you've all been waiting for: Still We Destroy has finally been tabbed. Was this info helpful? Yes No
[Intro]
(Guitar 1)
e|--------------------------------|--------------------------------|
B|--------------------------------|--------------------------------|
G|--------------------------------|--------------------------------|
D|--------------------------------|--------------------------------|
A|----------------4h7-------------|4h7-----------------3-3-----4-4-|
E|--------------------------------|------------------------1-1-----|
A|3-3-----3-3-3-3-----3-3-3-3-3-3-|----3-3-3-3-3-3-3-3-------------|
  PM-|    PM-----|    PM---------|     PM-------------|    PM-|

e|--------------------------------|--------------------------------|
B|--------------------------------|--------------------------------|
G|--------------------------------|--------------------------------|
D|--------------------------------|5-5-----6-6---------------------|(x2)
A|----------------4h7-------------|----3-3-----3-3-4-4-3-3---------|
E|--------------------------------|------------------------4-4-3-3-|
A|3-3-----3-3-3-3-----3-3-3-3-3-3-|--------------------------------|
  PM-|    PM-----|    PM---------|

(Guitar 2)
e|--------------------------------|--------------------------------|
B|--------------------------------|--------------------------------|
G|--------------------------------|--------------------------------|
D|--------------------------------|--------------------------------|
A|----------------4h7-------------|4h7-----------------3-3-----4-4-|
E|--------------------------------|------------------------1-1-----|
A|3-3-----3-3-3-3-----3-3-3-3-3-3-|----3-3-3-3-3-3-3-3-------------|
  PM-|    PM-----|    PM---------|     PM-------------|    PM-|

e|--------------------------------|--------------------------------|
B|--------------------------------|--------------------------------|
G|--------------------------------|--------------------------------|
D|--------------------------------|5-5-----6-6---------------------|(x2)
A|----------------4h7-------------|----3-3-----3-3-4-4-3-3---------|
E|--------------------------------|------------------------4-4-3-3-|
A|3-3-----3-3-3-3-----3-3-3-3-3-3-|--------------------------------|
  PM-|    PM-----|    PM---------|

(Guitar 3)
e|--------------------------------|13N-----------------------------|
B|13N-----------------------------|----------------14N-------------|
G|--------------------------------|--------------------------------|
D|--------------------------------|--------------------------------|
A|--------------------------------|--------------------------------|
E|--------------------------------|--------------------------------|
A|--------------------------------|--------------------------------|

e|--------------------------------|--------------------------------|
B|--------------------------------|--------------------------------|
G|13N-----------------------------|12b13r12N-----------------------|
D|--------------------------------|--------------------------------|
A|--------------------------------|--------------------------------|
E|--------------------------------|--------------------------------|
A|--------------------------------|--------------------------------|

e|--------------------------------|----------------12N-------------|
B|--------------------------------|--------------------------------|
G|13N-----------------------------|14N-----------------------------|
D|--------------------------------|--------------------------------|
A|--------------------------------|--------------------------------|
E|--------------------------------|--------------------------------|
A|--------------------------------|--------------------------------|

e|16N-----------------------------|15N-----------------------------|
B|--------------------------------|--------------------------------|
G|--------------------------------|--------------------------------|
D|--------------------------------|--------------------------------|
A|--------------------------------|--------------------------------|
E|--------------------------------|--------------------------------|
A|--------------------------------|--------------------------------|

[Verse 1]
(Guitar 1)
e|--------------------------------|--------------------------------|
B|--------------------------------|--------------------------------|
G|--------------------------------|--------------------------------|
D|--------------------------------|--------------------------------|
A|----------------4h7-------------|4h7-----------------3-3-----4-4-|
E|--------------------------------|------------------------1-1-----|
A|3-3-----3-3-3-3-----3-3-3-3-3-3-|----3-3-3-3-3-3-3-3-------------|
  PM-|    PM-----|    PM---------|     PM-------------|    PM-|

e|--------------------------------|--------------------------------|
B|--------------------------------|--------------------------------|
G|--------------------------------|--------------------------------|
D|--------------------------------|5-5-----6-6---------------------|(x2)
A|----------------4h7-------------|----3-3-----3-3-4-4-3-3---------|
E|--------------------------------|------------------------4-4-3-3-|
A|3-3-----3-3-3-3-----3-3-3-3-3-3-|--------------------------------|
  PM-|    PM-----|    PM---------|
e|--------------------------------|--------------------------------|
B|--------------------------------|--------------------------------|
G|--------------------------------|--------------------------------|
D|--------------------------------|--------------------------------|
A|--------------------------------|--------------------------------|
E|--------------------8-8-8-8-----|8-8-8-8---------8-8-9-9-8-8-----|
A|8-8-8-8-3-3-3-3-7-7---------7-7-|--------7-7-7-7-------------7-7-|
  PM-----------------|        PM-|         PM-----|            PM-|

e|--------------------------------|--------------------------------|
B|--------------------------------|--------------------------------|
G|--------------------------------|--------------------------------|
D|--------------------------------|----------------2h3p2h3---------|(x2)
A|------------4-4-----3-3-3-3-----|3-3-3-3-----------------4p3-----|
E|--------------------------------|----------------------------4p3-|
A|0-0-0-0-3-3-----0-0---------0-0-|--------0-0-0-0-----------------|
  PM---------|    PM-|        PM-|         PM-----|

e|----------------------------------|------------------------------|
B|----------------------------------|------------------------------|
G|----------------------------------|------------------------------|
D|----------------------------------|------------------------------|
A|----------------------------------|------------------------------|
E|3-------------------10---10---9---|9-----------8---7-------4-----|
A|3-------------------10---10---9---|9-----------8---7-------4-----|

(Guitar 2)
e|--------------------------------|--------------------------------|
B|--------------------------------|--------------------------------|
G|--------------------------------|--------------------------------|
D|--------------------------------|--------------------------------|
A|----------------4h7-------------|4h7-----------------3-3-----4-4-|
E|--------------------------------|------------------------1-1-----|
A|3-3-----3-3-3-3-----3-3-3-3-3-3-|----3-3-3-3-3-3-3-3-------------|
  PM-|    PM-----|    PM---------|     PM-------------|    PM-|

e|--------------------------------|--------------------------------|
B|--------------------------------|--------------------------------|
G|--------------------------------|--------------------------------|
D|--------------------------------|5-5-----6-6---------------------|(x2)
A|----------------4h7-------------|----3-3-----3-3-4-4-3-3---------|
E|--------------------------------|------------------------4-4-3-3-|
A|3-3-----3-3-3-3-----3-3-3-3-3-3-|--------------------------------|
  PM-|    PM-----|    PM---------|

e|--------------------------------|--------------------------------|
B|--------------------------------|--------------------------------|
G|--------------------------------|--------------------------------|
D|--------------------------------|--------------------------------|
A|--------------------------------|--------------------------------|
E|--------------------8-8-8-8-----|8-8-8-8---------8-8-9-9-8-8-----|
A|8-8-8-8-3-3-3-3-7-7---------7-7-|--------7-7-7-7-------------7-7-|
  PM-----------------|        PM-|         PM-----|            PM-|

e|--------------------------------|--------------------------------|
B|--------------------------------|--------------------------------|
G|--------------------------------|--------------------------------|
D|--------------------------------|----------------2h3p2h3---------|(x2)
A|------------4-4-----3-3-3-3-----|3-3-3-3-----------------4p3-----|
E|--------------------------------|----------------------------4p3-|
A|0-0-0-0-3-3-----0-0---------0-0-|--------0-0-0-0-----------------|
  PM---------|    PM-|        PM-|         PM-----|

e|----------------------------------|------------------------------|
B|----------------------------------|------------------------------|
G|----------------------------------|------------------------------|
D|----------------------------------|------------------------------|
A|----------------------------------|------------------------------|
E|3-------------------10---10---9---|9-----------8---7-------4-----|
A|3-------------------10---10---9---|9-----------8---7-------4-----|

[Chorus]
(Guitar 1 and 2)
e|--------------------------------|--------------------------------|
B|--------------------------------|--------------------------------|
G|--------------------------------|--------------------------------|
D|--------------------------------|--------------------------------|
A|------------------------4---4---|--------------------4---4---4---|
E|3---3---3---3-------3-----------|3---3---3---3-------------------|
A|3---3---3---3-------3---4---4---|3---3---3---3-------4---4---4---|
  PM-------------|    PM           PM-------------|

e|--------------------------------|--------------------------------|
B|--------------------------------|--------------------------------|
G|--------------------------------|--------------------------------|
D|--------------------------------|--------------------------------|(x2)
A|------------------------8---3---|8---------------7-------4-------|
E|3---3---3---3-------3-----------|--------------------------------|
A|3---3---3---3-------3---8---3---|8---------------7-------4-------|
  PM-------------|    PM

(Guitar 1)
e|--------------------------------|--------------------------------|
B|--------------------------------|--------------------------------|
G|--------------------------------|--------------------------------|
D|--------------------------------|--------------------------------|
A|----------------4h7-------------|4h7-----------------3-3-----4-4-|
E|--------------------------------|------------------------1-1-----|
A|3-3-----3-3-3-3-----3-3-3-3-3-3-|----3-3-3-3-3-3-3-3-------------|
  PM-|    PM-----|    PM---------|     PM-------------|    PM-|

e|--------------------------------|--------------------------------|
B|--------------------------------|--------------------------------|
G|--------------------------------|--------------------------------|
D|--------------------------------|5-5-----6-6---------------------|(x2)
A|----------------4h7-------------|----3-3-----3-3-4-4-3-3---------|
E|--------------------------------|------------------------4-4-3-3-|
A|3-3-----3-3-3-3-----3-3-3-3-3-3-|--------------------------------|
  PM-|    PM-----|    PM---------|

(Guitar 2)
e|--------------------------------|--------------------------------|
B|--------------------------------|--------------------------------|
G|--------------------------------|--------------------------------|
D|--------------------------------|--------------------------------|
A|----------------4h7-------------|4h7-----------------3-3-----4-4-|
E|--------------------------------|------------------------1-1-----|
A|3-3-----3-3-3-3-----3-3-3-3-3-3-|----3-3-3-3-3-3-3-3-------------|
  PM-|    PM-----|    PM---------|     PM-------------|    PM-|

e|--------------------------------|--------------------------------|
B|--------------------------------|--------------------------------|
G|--------------------------------|--------------------------------|
D|--------------------------------|5-5-----6-6---------------------|(x2)
A|----------------4h7-------------|----3-3-----3-3-4-4-3-3---------|
E|--------------------------------|------------------------4-4-3-3-|
A|3-3-----3-3-3-3-----3-3-3-3-3-3-|--------------------------------|
  PM-|    PM-----|    PM---------|

[Build-up]
(Guitar 1)
e|--------------------------------|--------------------------------|
B|--------------------------------|--------------------------------|
G|--------------------------------|--------------------------------|
D|5-5-----6-6---------5-5---------|----6-6-----5-5-6-6-5-5-6-6-----|
A|----3-3-----3-3-7-7-----7-7-4-4-|3-3-----3-3-----------------3-3-|
E|--------------------------------|--------------------------------|
A|--------------------------------|--------------------------------|

e|--------------------------------|--------------------------------|
B|--------------------------------|--------------------------------|
G|--------------------------------|--------------------------------|
D|5-5-----6-6---------5-5---------|----6-6-----5-5-5-5-----6-6-----|(x2)
A|----3-3-----3-3-7-7-----7-7-4-4-|3-3-----3-3---------3-3-----3-3-|
E|--------------------------------|--------------------------------|
A|--------------------------------|--------------------------------|

(Guitar 2)
e|--------------------------------|--------------------------------|
B|--------------------------------|--------------------------------|
G|--------------------------------|--------------------------------|
D|--------------------------------|--------------------------------|
A|--------------------------------|--------------------------------|
E|3-3-3-------3-------3-3-----3-3-|3-3-----3-------3-3-----3-3-3-3-|
A|3-3-3-------3-------3-3-----3-3-|3-3-----3-------3-3-----3-3-3-3-|
  PM---|      PM      PM-|    PM------|    PM      PM-|    PM-----|

e|--------------------------------|--------------------------------|
B|--------------------------------|--------------------------------|
G|--------------------------------|----------------5-5-----6-6-----|
D|--------------------------------|--------------------3-3-----3-3-|(x2)
A|--------------------------------|--------------------------------|
E|----3-------3-3-----3-3-3-3-----|3-------3-3---------------------|
A|----3-------3-3-----3-3-3-3-----|3-------3-3---------------------|
      PM      PM-|    PM-----|     PM      PM-|

(Guitar 1 and 2)  Bright Blood Red!
e|0-----0-----0---0-0-0-0---------|
B|3-----4-----3---4-4-4-4---------|
G|--------------------------------|
D|--------------------------------|
A|--------------------------------|
E|------------------------1--1--1-|
A|------------------------1--1--1-|

[Breakdown]
(Guitar 1 and 2)
e|----------------------0---------|------------------------------0-|
B|----------------------4---------|------------------------------4-|
G|--------------------------------|--------------------------------|
D|--------------------------------|--------------------------------|
A|--------------------------------|--------------------------------|
E|0-0-0-0-----0-------0-------0-0-|0-0-----0-------0-0-----0-0-0---|
A|0-0-0-0-----0-------0-------0-0-|0-0-----0-------0-0-----0-0-0---|
  PM-----|    PM      PM      PM------|    PM      PM-|    PM---|

e|----------------0---------------|----------0---------------------|
B|----------------4---------------|----------4---------------------|
G|--------------------------------|--------------------------------|
D|--------------------------------|--------------------------------|
A|--------------------------------|--------------------------------|
E|----0-------0-0-----0-0-0-0-----|0-------0-------0-0-0-0-----0---|
A|----0-------0-0-----0-0-0-0-----|0-------0-------0-0-0-0-----0---|
      PM      PM-|    PM-----|     PM      PM      PM-----|    PM

e|--------------------0-----------|--------------------------------|
B|--------------------4-----------|--------------------------------|
G|--------------------------------|--------------------------------|
D|--------------------------------|--------------------------------|
A|--------------------------------|--------------------------------|
E|----0-0-----0-0-0-------0-------|0-0-----0-0-0-0-----0-------0-0-|
A|----0-0-----0-0-0-------0-------|0-0-----0-0-0-0-----0-------0-0-|
      PM-|    PM-----|    PM       PM-|    PM-----|    PM      PM-|

e|--------------------------------|--------------------------------|
B|--------------------------------|--------------------------------|
G|--------------------------------|--------------------------------|
D|--------------------------------|--------------------------------|
A|--------------------------------|--------------------------------|
E|----0-0-0-0-----0-------0-0-----|0-0-0-0-----0---1---0-4----0-0--|
A|----0-0-0-0-----0-------0-0-----|0-0-0-0-----0---1---0-4----0-0--|
      PM-----|    PM      PM-|     PM-----|    PM      PM     PM--|

[Break 1]
(Guitar 1)
e|--------------------------------|--------------------------------|
B|--------------------------------|--------------------------------|
G|--------------------------------|--------------------------------|
D|--------------------------------|--------------------------------|(x2)
A|----------------3-3-3-----------|4-4-4-------------------4-4-4---|
E|--------------------------------|--------------------------------|
A|3-3-3---3-3-3-----------3-3-3---|--------4-4-4---7-7-7-----------|

(Guitar 2)
e|--------------------------------|--------------------------------|
B|--------------------------------|--------------------------------|
G|--------------------------------|--------------------------------|
D|--------------------------------|--------------------------------|
A|--------------------------------|--------------------------------|
E|3-------------------------------|(3)-----------------------------|
A|3-------------------------------|(3)-----------------------------|

[Bridge]
(Guitar 1)
e|--------------------------------|--------------------------------|
B|--------------------------------|--------------------------------|
G|--------------------------------|--------------------------------|
D|10N-----11N-----8N--------------|8N--------------8N--------------|
A|--------------------------------|--------10N-------------8N------|
E|--------------------------------|--------------------------------|
A|--------------------------------|--------------------------------|

e|--------------------------------|--------------------------------|
B|--------------------------------|--------------------------------|
G|--------------------------------|--------------------------------|
D|------------------------8N------|--------------------------------|(x4)
A|11N-----------------------------|10N-----------------------------|
E|--------------------------------|--------------------------------|
A|--------------------------------|--------------------------------|

(Guitar 2)
e|--------------------------------|--------------------------------|
B|--------------------------------|--------------------------------|
G|--------------------------------|--------------------------------|
D|--------------------------------|--------------------------------|
A|--------3N----------------------|4N------------------------------|
E|------------------------1N------|--------1N--------------1N------|
A|3N--------------3N--------------|----------------4N--------------|

e|--------------------------------|--------------------------------|
B|--------------------------------|--------------------------------|
G|--------------------------------|--------------------------------|
D|--------------------------------|--------------------------------|(x4)
A|--------3N----------------------|--------------------------------|
E|--------------------------------|1N--------------4N------3N------|
A|3N--------------3N------4N------|--------4N----------------------|

[Solo]
(Guitar 1)
e|--------------------------------|--------------------------------|
B|--------------------------------|--------------------------------|
G|--------------------------------|--------------------------------|
D|--------------------------------|--------------------------------|
A|--------3-3-3-3---------3-3-3-3-|--------3-3-3-3---------4-4-4-4-|
E|--------------------------------|----------------1-1-1-1---------|
A|3-3-3-3---------3-3-3-3---------|3-3-3-3-------------------------|

e|--------------------------------|--------------------------------|
B|--------------------------------|--------------------------------|
G|--------------------------------|--------------------------------|
D|--------------------------------|--------------------------------|(x2)
A|--------4-4-4-4---------4-4-4-4-|--------4-4-4-4---------4-4-4-4-|
E|--------------------------------|----------------1-1-1-1---------|
A|4-4-4-4---------4-4-4-4---------|4-4-4-4-------------------------|

e|--------------------------------|--------------------------------|
B|--------------------------------|--------------------------------|
G|--------------------------------|--------------------------------|
D|--------------------------------|--------------------------------|
A|3-------------------------------|(3)-----------------------------|
E|3-------------------------------|(3)-----------------------------|
A|3-------------------------------|(3)-----------------------------|

(Guitar 2)
e|------|20~--------------20--18--16---16-18-16---------|-----------------------|
B|------|----------------------------------------20--18-|17-18-17-18--18-18-17--|
G|/17---|-----------------------------------------------|-----------------------|
D|------|-----------------------------------------------|-----------------------|
A|------|-----------------------------------------------|-----------------------|
E|------|-----------------------------------------------|-----------------------|
A|------|-----------------------------------------------|-----------------------|

                                                                                               t
e|----------------------------------------------|----------------------------16-21-16----16-21-24p21p16--13--|
B|----------------------------------------------|-------------------------18----------18-------------------15|
G|18-17-18-17-----------------------------------|----------------------18------------------------------------|
D|-------------20-18-17-15--17-18-17---18-17-15-|15-----------------18---------------------------------------|
A|----------------------------------------------|-------------16-20------------------------------------------|
E|----------------------------------------------|------------------------------------------------------------|
A|----------------------------------------------|------------------------------------------------------------|


e|12--------12---13---12----------------------------|------------------12-13-12-15b16r|15-----------|
B|-----13--------------------------14---13-14-13----|14~---------13-14----------------|-------------|
G|-----------------------------------------------15-|---------15----------------------|-------------|
D|--------------------------------------------------|---------------------------------|-------------|
A|--------------------------------------------------|---------------------------------|-------------|
E|--------------------------------------------------|---------------------------------|-------------|
A|--------------------------------------------------|---------------------------------|-------------|

e|--------------------------------|--------------------------------|
B|-----------13--11---------------|--------------------------------|
G|12b13r12-----------13-----17b18r|17--15-13-12--------------------|
D|--------------------------------|--------------------------------|
A|--------------------------------|--------------------------------|
E|--------------------------------|--------------------------------|
A|--------------------------------|--------------------------------|

[Break 2]
(Guitar 1)
e|--------------------------------|--------------------------------|
B|--------------------------------|--------------------------------|
G|--------------------------------|--------------------------------|
D|--------------------------------|--------------------------------|
A|3-------------------------------|(3)-----------------------------|
E|3-------------------------------|(3)-----------------------------|
A|3-------------------------------|(3)-----------------------------|

e|--------------------------------|--------------------------------|--------------------------------|
B|--------------------------------|--------------------------------|--------------------------------|
G|--------------------------------|--------------------------------|--------------------------------|
D|--------------------------------|--------------------------------|--------------------------------|
A|3-------------------------------|3-3-3-----------3-3-3-----------|----------------3b4N------------|
E|3-------------------------------|3-3-3-----------3-3-3-----------|--------------------------------|
A|3-------------------------------|3-3-3-----------3-3-3-----------|3b4N----------------------------|
                                   PM---|          PM---|           Gradual bend while tremolo picking

(Guitar 2)                         1st Ending                       2nd Ending
e|--------------------------------|--------------------------------|---------------------------------------|
B|--------------------------------|--------------------------------|---------------------------------------|
G|--------------------------------|--------------------------------|---------------------------------------|
D|--------------------------------|--------------------------------|---------------------------------------|
A|-------6------------------------|-------6-------6-6--6--6--6-----|---------------------------------3b4N--|
E|3p0-0--4-0-3-0-8\7---7\4--3-----|3p0-0--4-0-3-0-4-4--4--4--4-----|---------------------------------------|
A|3p0-0----0-3-0-8\7---7\4--3-----|3p0-0----0-3-0------------------|2-2-2-3b4N---2-2-2-3b4N----3b4N--------|
      PM   PM  PM                      PM   PM  PM

[Outro]
(Guitar 1 and 2)                1st Ending                     2nd Ending
e|-----------------------------|------------------------------|-------------------------|
B|-----------------------------|------------------------------|-------------------------|
G|-----------------------------|------------------------------|-------------------------|
D|-----------------------------|------------------------------|-------------------------|(x2)
A|-------6---------------------|-------6-------6-6--6--6--6---|-------------3b4N--------|
E|3p0-0--4-0-3-0-8\7---7\4--3--|3p0-0--4-0-3-0-4-4--4--4--4---|-------------------------|
A|3p0-0----0-3-0-8\7---7\4--3--|3p0-0----0-3-0----------------|3b4N---------------------|
      PM   PM  PM                   PM   PM  PM

e|--------------------------------|--------------------------------|
B|--------------------------------|--------------------------------|
G|--------------------------------|--------------------------------|
D|--------------------------------|--------------------------------|(x2)
A|--------------------------------|3b4N----------------------------|
E|--------------------------------|--------------------------------|
A|3b4N----------------------------|--------------------------------|

************************************

| (n) Ghost note
| h   Hammer-on
| p   Pull-off
| r   Release
| t   Tapping
| b   Bend
| /   Slide up
| \   Slide down
| ~   Vibrato
| PM  Palm mute
| N   Tremolo

************************************
Suggest correction
Creating personal tab
Creating personal tab
You can edit any tab online and save it as your Personal.

You can edit, replace or remove any tab part or add personal notes – all changes will be seen only by you.

Personal tabs can be accessed anytime from any device, even offline.
Learn more »
Give kudos to tab author, rate the tab!
1 2 3 4 5
comments
print report bad tab
4 comments total. Showing first comments.
0 reply
LMBozovich 706 Jun 24, 2017 12:42 PM

Guys, gals, thanks for viewing this tab. Make sure to rate.

+1 reply
damian_91 223 Jul 04, 2017 08:38 PM

keep them coming mate, appreciated

guest
You may want to rate the tab now too:
select rating
Wanna post a correction for this tab? Suggest correction