Oops, an error
Loading. Please wait.

Swing The Axe tab

version 1
version 1

Whole song

  • This version is based off the Tab Pro version, but... Show more

Interactive

67 views 1 this week
1 commentread comment
1 2 3 4 5
3 more votes to show rating
add to favorites
×
Save as Personal and add changes to this tab that will be seen only by you. Learn more ›
×
You can save this tab as Personal to edit and correct it or add notes. All changes will be seen only by you. Learn more »
launch autoscroll
font size
0
reset
how to read this tab
guitar tuner
edit
Autoscroll
slow
fast
+/-
esc
set tempo
stop
About this tab version
This version is based off the Tab Pro version, but does not have ghost notes to simulate the delay. Was this info helpful? Yes No
Tuning = 7-String Drop G (GDGCFAd)

[Intro]
(Guitar 1)
d|---------|--------|--------|---------|--------|
A|13-------|6-------|6-------|---------|--------|
F|14-------|7-------|7-------|9--------|--------|
C|14-------|7-------|7-------|10-------|--------|(x2)
G|12-------|5-------|5-------|8--------|7-------|
D|---------|--------|--------|---------|5-------|
G|---------|--------|--------|---------|--------|

(Guitar 2)
d|---------|--------|--------|---------|--------|
A|---------|--------|--------|---------|--------|
F|---------|--------|--------|---------|--------|
C|---------|--------|--------|---------|--------|
G|---------|--------|--------|---------|--------|
D|---------|--------|--------|---------|--------|
G|---------|--------|--------|---------|0-------|

d|---------|--------|--------|---------|--------|
A|---------|--------|--------|---------|--------|
F|---------|--------|--------|---------|--------|
C|---------|--------|--------|---------|--------|
G|12~------|5-------|5-------|3--------|--------|
D|---------|--------|--------|---------|--------|
G|---------|--------|--------|---------|0-------|

[Verse 1]
(Guitar 1)
d|--------------------|--------------------|------------------|----------------------|
A|---------------13---|-----13-------------|---------0--------|-----6-------6--------|
F|----------16--------|16--------16--------|------------------|---------9------------|
C|-----14-------------|---------------14---|----10-------10---|10---------------10---|
G|15------------------|--------------------|------------------|----------------------|
D|--------------------|--------------------|------------------|----------------------|
G|--------------------|--------------------|8-----------------|----------------------|

d|------------0---|--------0-----------|------------0---|----------------|----------------|
A|--------6-------|----6-------6-------|--------6-------|----------------|----------------|
F|----------------|--------------------|----------------|----------------|----------------|
C|----7-----------|7---------------7---|----7-----------|7-7-7-7-7-7-7-7-|5-5-5-5-2---0---|(x2)
G|----------------|--------------------|----------------|--------8-8-8-8-|7-7-7-7-3---2---|
D|----------------|--------------------|0---------------|5-5-5-5---------|----------------|
G|5---------------|--------------------|----------------|----------------|----------------|

(Guitar 2)                            1st Ending  2nd Ending
d|--------|--------|--------|--------|-----------|----------------|----------------|
A|--------|--------|--------|--------|-----------|----------------|----------------|
F|--------|--------|--------|--------|-----------|----------------|----------------|
C|--------|--------|--------|--------|-----------|--------7-7-7-7-|5-5-5-5-2---0---|
G|0-------|--------|--------|--------|-----------|--------8-8-8-8-|7-7-7-7-3---2---|
D|--------|--------|--------|--------|-----------|5-5-5-5---------|----------------|
G|--------|8-------|5-------|7-------|0----------|0-0-0-0---------|----------------|

[Break]
(Guitar 1)
d|--------------|-------------------|-------------------|-----------------------|
A|--------------|-------------------|-------------------|-----------------------|
F|--------------|-------------------|-------------------|-----------------------|
C|--------------|-------------------|-------------------|-----------------------|
G|--------------|-------------14----|-------------14----|-----14----------------|
D|--------------|-------------------|-------------------|-----------------------|
G|0-0-0-0-0-0-0-|0-0-0-0-0-12----12-|0-0-0-0-0-12----12-|0-12----12-12-12-12-12-|
  PM-------------------------|   PM--------------|   PM------    PM------------|

d|----------------------|----------------------|----------------------|----------------------|
A|----------------------|----------------------|----------------------|----------------------|
F|----------------------|----------------------|----------------------|----------------------|
C|----------------------|----------------------|----------------------|----------------------|
G|-----14---------14----|-----14-15------14----|-----14---------14----|-----14-15------14----|
D|----------------------|----------------------|----------------------|----------------------|
G|0-12----12-0-12----12-|0-12-------0-12----12-|0-12----12-0-12----12-|0-12-------0-12----12-|
  PM--|   PM-----|   PM------|      PM--|   PM------|   PM-----|   PM------|      PM--|   PM

d|----------------------|----------------------|----------------|----------------|
A|----------------------|----------------------|----------------|----------------|
F|----------------------|----------------------|----------------|----------------|
C|----------------------|----------------------|----------------|----------------|(x2)
G|-----12---------12----|-----10---------10----|----9-------9---|----7-------7---|
D|----------------------|----------------------|----------------|----------------|
G|0-10----10-0-10----10-|0-10----10-0-10----10-|0-8---8-0-8---8-|0-7---7-0-7---7-|
  PM--|   PM-----|   PM------|   PM-----|   PM-----|  PM---|  PM----|  PM---|  PM

d|----------------------|----------------------|-----------------|-----------------|
A|----------------------|----------------------|-----------------|-----------------|
F|----------------------|----------------------|-----------------|-----------------|
C|----------------------|----------------------|-----------------|-----------------|(x4)
G|-----14---------14----|-----12---------12----|----12-------9---|----10-------7/9-|
D|----------------------|----------------------|-----------------|-----------------|
G|0-12----12-0-12----12-|0-10----10-0-10----10-|0-8----8-0-8---8-|0-7----7-0-7-----|
  PM--|   PM-----|   PM------|   PM-----|   PM-----|   PM---|  PM----|   PM---|

(Guitar 2)
d|--------------|
A|--------------|
F|--------------|
C|--------------|
G|--------------|
D|--------------|
G|0-------------|

  t          t             t       t
d|---------------------|----------------------|
A|---------------------|----------------------|
F|17p9h10h12h14p9------|----------------------|
C|----------------12p9h|10h15p9h10h14p9h10h12-|(x3)
G|---------------------|----------------------|
D|---------------------|----------------------|
G|---------------------|----------------------|
Play this tab section twice

d|---------------------|-----------------------|
A|---------------------|-----------------18/17-|
F|-----12p10p9h16p10p9h|17p12p10h19p10p9-------|
C|10h9-----------------|-----------------------|
G|---------------------|-----------------------|
D|---------------------|-----------------------|
G|---------------------|-----------------------|

[Verse 2]
(Guitar 1 and 2)
d|----------------------------------|---------------------------------|
A|----------------------------------|---------------------------------|
F|----------------------------------|---------------------------------|
C|14--------------------------------|---------------------------------|
G|----------------------------------|---------------------------------|
D|--------------------------------7h|8p7--------------------------5-5-|
G|---0-0-0-0-0-0-0-0-0-0-0-0h7h10---|----10p7-0-0-0-0-0-0-0-0-8-8-----|

  1st Ending
d|----------------------------------|------------------------------------|
A|----------------------------------|------------------------------------|
F|----------------------------------|------------------------------------|
C|----------------------------------|------------------------------------|
G|----------------------------------|------------------------12-12-12-12-|
D|7-7---------------------10-10-----|8-8---------------------------------|
G|----8-8-8-8-8-8-8-8-8-8-------8-8-|----7-7-7-7-7-7-7-7-7-7-------------|

  2nd Ending
d|--------------------------------|--------------------------------------|
A|--------------------------------|--------------------------------------|
F|--------------------------------|--------------------------------------|
C|--------------------------------|----------------------10-10-9-9-------|
G|----7-7-7-7-----8-8-8-8-----7-7-|--------------8-8-7-7-----------12-12-|
D|--------------------------------|10-10-8-8-7-7-------------------------|
G|5-5---------7-7---------8-8-----|--------------------------------------|

[Breakdown]
(Guitar 1 and 2)
d|--------------------------------|--------------------------------|
A|--------------------------------|--------------------------------|
F|--------------------------------|--------------------------------|
C|--------------------------------|--------------------------------|
G|--------------------------------|--------------------------------|
D|0-0-0---0-----------0-0-0---0-0-|0---0-0-0---0-0-0---0-0-0---0---|
G|0-0-0---0-----------0-0-0---0-0-|0---0-0-0---0-0-0---0-0-0---0---|
  PM-----|            PM------------------------------------------|

d|--------------------------------|--------------------------------|
A|--------------------------------|--------------------------------|
F|--------------------------------|--------------------------------|
C|--------------------------------|--------------------------------|
G|--------------------------------|--------------------------------|
D|0-0-0---0-----------0-0-0---0-0-|0---2-2-2---0-0-0---0-0-0---0---|
G|0-0-0---0-----------0-0-0---0-0-|0---5-5-5---3-3-3---2-2-2---3---|
  PM-----|            PM------------------------------------------|

           N.H.
d|------------------x-------------|--------------------------------|
A|---------x-------x--------------|--------------------------------|
F|----------x-----x---------------|--------------------------------|
C|-----------x---x----------------|--------------------------------|
G|------------x-x-----------------|--------------------------------|
D|0-0-0--------x------0-0-0---0-0-|0---0-0-0---0-0-0---0-0-0---0---|
G|0-0-0---------------0-0-0---0-0-|0---0-0-0---0-0-0---0-0-0---0---|
  PM------|           PM------------------------------------------|

d|--------------------------------|--------------------------------|
A|--------------------------------|--------------------------------|
F|--------------------------------|--------------------------------|
C|--------------------------------|--------------------------------|(x2)
G|--------------------------------|--------------------------------|
D|0-0-0---0-----------0-0-0---0-0-|0---2-2-2---0-0-0---0-0-0---0---|
G|0-0-0---0-----------0-0-0---0-0-|0---5-5-5---3-3-3---2-2-2---3---|
  PM-----|            PM------------------------------------------|

[Post-Breakdown Part 1]
(Guitar 1)
d|------------------------------------------|--------------------------------|
A|------------------------------------------|--------------------------------|
F|------------------------------------------|--------------------------------|
C|------------------------------------------|--------------------------------|
G|------------------------------------------|--------------------------------|
D|--------10-10-10-10-10-10-10-10-----10-10-|----8-8-8-8-8-8-----7-7-----8-8-|
G|0-0-0---------------------------8-8-------|7-7-------------5-5-----7-7-----|
  PM-----|                        PM-|       PM-|            PM-|    PM-|

d|--------------------------------|----------------------------------|
A|--------------------------------|----------------------------------|
F|--------------------------------|----------------------------------|
C|--------------------------------|----------------------------------|
G|--------------------------------|----------------------------------|
D|5-5-5-5-5-5-5-5-5-5-5-5-5-5-5-5-|5-5-5-5-5-5-5-5--------7h8p7------|
G|0-0-0-0-0-0-0-0-0-0-0-0-0-0-0-0-|0-0-0-0-0-0-0-0-0h7h10-------10p7-|

(Guitar 2)
d|--------------------------------|--------------------------------|
A|--------------------------------|--------------------------------|
F|--------------------------------|--------------------------------|
C|--------------------------------|--------------------------------|
G|--------8-8-8-8-8-8-8-8-----8-8-|----7-7-7-7-7-7-----5-5-----7-7-|
D|--------------------------------|--------------------------------|
G|0-0-0-------------------8-8-----|7-7-------------5-5-----7-7-----|
  PM-----|                PM-|     PM-|            PM-|    PM-|

d|------------------------------------------------|-----------------------------------------------|
A|------------------------------------------------|-----------------------------------------------|
F|------------------------------------------------|-----------------------------------------------|
C|------------------------------------------------|-----------------------------------------------|
G|------------------------------------------------|-----------------------------------------------|
D|12-12-12-12-12-12-12-12-12-12-12-12-12-12-12-12-|12-12-12-12-12-12-12-12---------10h11p10-------|
G|0--0--0--0--0--0--0--0--0--0--0--0--0--0--0--0--|0--0--0--0--0--0--0--0--0h10h13----------14p10-|

[Post-Breakdown Part 2]
(Guitar 1)
d|--------------------------------------------|--------------------------------|
A|--------------------------------------------|--------------------------------|
F|--------------------------------------------|--------------------------------|
C|--------------------------------------------|--------------------------------|
G|--------------------------------------------|--------------------------------|
D|----10-10-10-10-10-10-10-10-10-10-----10-10-|----8-8-8-8-8-8-----7-7-----8-8-|
G|8-8-------------------------------8-8-------|7-7-------------5-5-----7-7-----|
  PM-|                              PM-|       PM-|            PM-|    PM-|

d|--------------------------------|----------------------------------|
A|--------------------------------|----------------------------------|
F|--------------------------------|----------------------------------|
C|--------------------------------|----------------------------------|(x3)
G|--------------------------------|----------------------------------|
D|5-5-5-5-5-5-5-5-5-5-5-5-5-5-5-5-|5-5-5-5-5-5-5-5--------7h8p7------|
G|0-0-0-0-0-0-0-0-0-0-0-0-0-0-0-0-|0-0-0-0-0-0-0-0-0h7h10-------10p7-|

(Guitar 2)
d|--------------------------------|--------------------------------|
A|--------------------------------|--------------------------------|
F|--------------------------------|--------------------------------|
C|--------------------------------|--------------------------------|
G|----8-8-8-8-8-8-8-8-8-8-----8-8-|----7-7-7-7-7-7-----5-5-----7-7-|
D|--------------------------------|--------------------------------|
G|8-8---------------------8-8-----|7-7-------------5-5-----7-7-----|
  PM-|                    PM-|     PM-|            PM-|    PM-|

d|------------------------------------------------|-----------------------------------------------|
A|------------------------------------------------|-----------------------------------------------|
F|------------------------------------------------|-----------------------------------------------|
C|------------------------------------------------|-----------------------------------------------|
G|------------------------------------------------|-----------------------------------------------|
D|12-12-12-12-12-12-12-12-12-12-12-12-12-12-12-12-|12-12-12-12-12-12-12-12---------10h11p10-------|
G|0--0--0--0--0--0--0--0--0--0--0--0--0--0--0--0--|0--0--0--0--0--0--0--0--0h10h13----------14p10-|

d|------------------------------------------------|--------------------------------|
A|------------------------------------17-17-17-17-|--------------------------------|
F|14-14-14-14-14-14-14-14-14-14-14-14-------------|9-9-9-9-9-9-9-9-9-9-9-9-9-9-9-9-|
C|------------------------------------------------|--------------------------------|
G|------------------------------------------------|--------------------------------|
D|------------------------------------------------|--------------------------------|
G|------------------------------------------------|--------------------------------|

d|----------------------------------------|------------------------------------------------|
A|----------------------------------------|------------------------------------------------|
F|9b11-----9b11-9b11-9b11-----9-9-9-9-9-9-|16-16-16-16-16-16-16-16-14-14-14-14-14-14-14-14-|
C|----------------------------------------|------------------------------------------------|
G|----------------------------------------|------------------------------------------------|
D|----------------------------------------|------------------------------------------------|
G|----------------------------------------|------------------------------------------------|

d|----------------------------------------|--------------------------------|
A|----------------10-10-10-10-10-10-10-10-|--------------------------------|
F|7-7-7-7-7-7-7-7-------------------------|5-5-5-5-5-5-5-5-4-4-4-4-4-4-4-4-|
C|----------------------------------------|--------------------------------|
G|----------------------------------------|--------------------------------|
D|----------------------------------------|--------------------------------|
G|----------------------------------------|--------------------------------|

d|--------------------------------|--------------------------------|
A|----------------5-5-5-5-6-6-6-6-|--------------------------------|
F|2-2-2-2-2-2-2-2-----------------|5-5-5-5-5-5-5-5-5-5-5-5-5-5-5-5-|
C|--------------------------------|--------------------------------|
G|--------------------------------|--------------------------------|
D|--------------------------------|--------------------------------|
G|--------------------------------|--------------------------------|

[Hook]
(Guitar 1)
d|-----------------------------------|------------------------------------------|
A|-----------------------------------|------------------------------------------|
F|-----------------------------------|------------------------------------------|
C|-----------------------------------|------------------------------------------|(x4)
G|-----------------------------14----|-------------14---------14----------------|
D|-----------------------------------|------------------------------------------|
G|0-0-0-0-0-0-0-0-0-0-0-0-0-12----12-|0-0-0-0-0-12----12-0-12----12-12-12-12-12-|
  PM--------------------------|   PM--------------|   PM-----|   PM------------|

d|--------------------------------|--------------------------------|
A|--------------------------------|--------------------------------|
F|--------------------------------|--------------------------------|
C|--------------------------------|--------------------------------|
G|--------------------------------|--------------------------------|
D|0-0-0-0-0-0-0-0-0-0-0-0-0-0-0-0-|0-0-0-0-0-0-0-0-0-0-0-0-0-0-0-0-|
G|0-0-0-0-0-0-0-0-0-0-0-0-0-0-0-0-|0-0-0-0-0-0-0-0-0-0-0-0-0-0-0-0-|
  PM------------------------------------------------|

(Guitar 2)
d|--------------|
A|--------------|
F|--------------|
C|--------------|
G|--------------|
D|--------------|
G|0-------------|

  t          t             t       t
d|---------------------|----------------------|
A|---------------------|----------------------|
F|17p9h10h12h14p9------|----------------------|
C|----------------12p9h|10h15p9h10h14p9h10h12-|(x8)
G|---------------------|----------------------|
D|---------------------|----------------------|
G|---------------------|----------------------|

[Build-up]
(Guitar 1)
d|--------------------------------|
A|--------------------------------|
F|--------------------------------|
C|--------------------------------|(x15)
G|--------------------------------|
D|0---0-------0---0---0---0---0---|
G|0---0-------0---0---0---0---0---|
  PM-----|    PM-----------------|

d|---------------------------------|
A|---------------------------------|
F|---------------------------------|
C|---------------------------------|
G|---------------------------------|
D|0---0-------0---0---0-------0----|
G|0---0-------0---0---0-------0----|
  PM------|   PM----------|   PM

(Guitar 2)
  t          t             t       t
d|---------------------|----------------------|
A|---------------------|----------------------|
F|17p9h10h12h14p9------|----------------------|
C|----------------12p9h|10h15p9h10h14p9h10h12-|(x8)
G|---------------------|----------------------|
D|---------------------|----------------------|
G|---------------------|----------------------|

[Outro]
(Guitar 1 and 2)
d|---------------------------------|
A|---------------------------------|
F|---------------------------------|
C|---------------------------------|(x16)
G|---------------------------------|
D|0---0-------0---0---0-------0----|
G|0---0-------0---0---0-------0----|
  PM------|   PM----------|   PM


***********************************************

| x     dead note
| p     pull-off
| h     hammer-on
| t     tapping
| b     bending
| ~     vibrato
| N.H.  Natural Harmonic
| PM    palm mute

***********************************************

            
            
Suggest correction
Creating personal tab
Creating personal tab
You can edit any tab online and save it as your Personal.

You can edit, replace or remove any tab part or add personal notes – all changes will be seen only by you.

Personal tabs can be accessed anytime from any device, even offline.
Learn more »
Give kudos to tab author, rate the tab!
1 2 3 4 5
comments
print report bad tab
1 comment total.
0 reply
LMBozovich 936 Jun 24, 2017 01:17 AM

Guys, gals, thanks for viewing this tab. Make sure to rate.

guest
You may want to rate the tab now too:
select rating
Wanna post a correction for this tab? Suggest correction