Oops, an error
Loading. Please wait.

The Travelers tab

70 views 3 this week
1 commentread comment
1 2 3 4 5
3 more votes to show rating
add to favorites
×
Save as Personal and add changes to this tab that will be seen only by you. Learn more ›
×
You can save this tab as Personal to edit and correct it or add notes. All changes will be seen only by you. Learn more »
launch autoscroll
font size
0
reset
how to read this tab
guitar tuner
edit
Autoscroll
slow
fast
+/-
esc
set tempo
stop
[Intro]
(Guitar 1)
e|--------------------------------|--------------------------------|----------------|
B|--------------------------------|--------------------------------|----------------|
G|--------------------------------|--------------------------------|----------------|
D|3---3---3-------3---3---6---3---|3---3---3-------3---2---6---3---|----------------|
A|2---2---2-------2---2---5---2---|2---2---2-------2---2---5---2---|x\--------------|
E|1p0-1p0-1p0-----1p0-1p0-4---1---|1p0-1p0-1p0-----1p0-1p0-4---1---|x\--------------|
A|------------0-0-----------------|------------0-0-----------------|x\--------------|
              PM-|                             PM-|
(Guitar 2)
e|--------------------------------|--------------------------------|----------------|
B|--------------------------------|--------------------------------|----------------|
G|--------------------------------|--------------------------------|----------------|
D|3-----------3---------------3-3-|------------3---3---------------|----------------|
A|2-----------2---------------2-2-|------------2---2---------------|x\--------------|
E|1-----------1---------------1-1-|------------1---1---------------|x\--------------|
A|--------------------------------|--------------------------------|x\--------------|

[Verse]
(Guitar 1 and 2)
e|--------------------------------|--------------------3p2p0-------------|
B|--------------------------------|--------------------------3p2p0-------|
G|--------------------------------|--------------------------------4p3p0-|
D|3---3---3-------3---3---6---3---|3---3---3-------3---------------------|
A|2---2---2-------2---2---5---2---|2---2---2-------2---------------------|
E|1p0-1p0-1p0-----1p0-1p0-4---1---|1p0-1p0-1p0-----1p0-------------------|
A|------------0-0-----------------|------------0-0-----------------------|
              PM-|                             PM-|

e|--------------------------------|----------------5p4p0-------4p3p0-------|
B|--------------------------------|----------------------5p4p0-------4p3p0-|
G|--------------------------------|----------------------------------------|
D|3---3---3-------3---3---6---3---|3---3---3-------------------------------|
A|2---2---2-------2---2---5---2---|2---2---2-------------------------------|
E|1p0-1p0-1p0-----1p0-1p0-4---1p0-|1p0-1p0-1p0-----------------------------|
A|------------0-0-----------------|------------0-0-------------------------|
              PM-|                             PM-|

e|--------------------------------|--------------------3p2p0-------------|
B|--------------------------------|--------------------------3p2p0-------|
G|--------------------------------|--------------------------------4p3p0-|
D|3---3---3-------3---3---6---3---|3---3---3-------3---------------------|
A|2---2---2-------2---2---5---2---|2---2---2-------2---------------------|
E|1p0-1p0-1p0-----1p0-1p0-4---1---|1p0-1p0-1p0-----1p0-------------------|
A|------------0-0-----------------|------------0-0-----------------------|
              PM-|                             PM-|

e|--------------------------------|--------------------------------|
B|--------------------------------|--------------------------------|
G|--------------------------------|--------------------------------|
D|3---3---3-------3---3---6---3---|----3-3-3-3-3-3-1-1-1-1---------|
A|2---2---2-------2---2---5---2---|----2-2-2-2-2-2-1-1-1-1---------|
E|1p0-1p0-1p0-----1p0-1p0-4---1---|----1-1-1-1-1-1-1-1-1-1-0-------|
A|------------0-0-----------------|0-0---------------------0-------|
              PM-|                 PM-|

[Chorus]
(Guitar 1 and 2)
e|--------------------------------|--------------------------------|
B|--------------------------------|--------------------------------|
G|--------------------------------|--------------------------------|
D|--------------------------------|--------------------------------|
A|--------------------------------|--------------------------------|
E|------------------------1-1-1-1-|------------------------1-------|
A|1-1-1-1-4-4-4-4-3-3-3-3---------|1-1-1-1-4-4-4-4-3-3-3-3---4-3-0-|

e|--------------------------------|-----------------5p4p0-------4p3p0-------|
B|--------------------------------|-----------------------5p4p0-------4p3p0-|
G|--------------------------------|-----------------------------------------|
D|--------------------------------|-----------------------------------------|
A|--------------------------------|-----------------------------------------|
E|------------------------1-1-1-1-|-----------------------------------------|
A|1-1-1-1-4-4-4-4-3-3-3-3---------|-1-1-1-1-4-4-4-4-------------------------|


[Verse 2]
(Guitar 1)
e|--------------------------------|
B|--------------------------------|
G|--------------------------------|
D|3---3---3-----3-3---3---6---3---|
A|2---2---2-----2-2---2---5---2---|
E|1---1---1-----1-1---1---4---1---|
A|--------------------------------|

e|--------------------------------|--------------------------------|
B|--------------------------------|--------------------------------|
G|--------------------------------|--------------------------------|
D|3---3---3-----3-3---3---6---3---|3---3---3-----3-3---3-----------|
A|2---2---2-----2-2---2---5---2---|2---2---2-----2-2---2-----------|
E|1---1---1-----1-1---1---4---1---|1---1---1-----1-1---1---1-1-1-1-|
A|--------------------------------|------------------------1-1-1-1-|
                                                           PM-----|

e|--------------------------------|--------------------------------|
B|--------------------------------|--------------------------------|
G|--------------------------------|--------------------------------|
D|3---3---3-----3-3---3---6---3---|3---3---3-----------------------|
A|2---2---2-----2-2---2---5---2---|2---2---2-----------------------|
E|1---1---1-----1-1---1---4---1---|1---1---1-------1---1-----------|
A|--------------------------------|------------------4---4-4-3-1-0-|
                                                   PM-------------|

e|--------------------------------|--------------------------------|
B|--------------------------------|--------------------------------|
G|--------------------------------|--------------------------------|
D|3---3---3-----3-3---3---6---3---|3---3---3-----3-3---3-----------|
A|2---2---2-----2-2---2---5---2---|2---2---2-----2-2---2-----------|
E|1---1---1-----1-1---1---4---1---|1---1---1-----1-1---1---1-1-1-1-|
A|--------------------------------|------------------------1-1-1-1-|
                                                           PM-----|

e|--------------------------------|--------------------------------|
B|--------------------------------|--------------------------------|
G|--------------------------------|--------------------------------|
D|3---3---3-----3-3---3---6---3---|3---3---3-----3-3---3---3-3-3-3-|
A|2---2---2-----2-2---2---5---2---|2---2---2-----2-2---2---2-2-2-2-|
E|1---1---1-----1-1---1---4---1---|1---1---1-----1-1---1---1-1-1-1-|
A|--------------------------------|--------------------------------|

(Guitar 2)
e|--------------------------------|--------------------------------|
B|--------------------------------|--------------------------------|
G|--------------------------------|--------------------------------|
D|3---3---3-------3---3---6---3---|3---3---3-------3---3-----------|
A|2---2---2-------2---2---5---2---|2---2---2-------2---2-----------|
E|1---1---1-------1---1---4---1---|1---1---1-------1---1---1-1-1-1-|
A|--------------------------------|------------------------1-1-1-1-|
                                                           PM-----|

e|--------------------------------|--------------------------------|
B|--------------------------------|--------------------------------|
G|--------------------------------|--------------------------------|
D|3---3---3-------3---3---6---3---|3---3---3-----------------------|
A|2---2---2-------2---2---5---2---|2---2---2-----------------------|
E|1---1---1-------1---1---4---1---|1---1---1-------1---1-----------|
A|--------------------------------|------------------4---4-4-3-1-0-|
                                                   PM-------------|

e|--------------------------------|--------------------------------|
B|--------------------------------|--------------------------------|
G|--------------------------------|--------------------------------|
D|3---3---3-------3---3---6---3---|3---3---3-------3---3-----------|
A|2---2---2-------2---2---5---2---|2---2---2-------2---2-----------|
E|1---1---1-------1---1---4---1---|1---1---1-------1---1---1-1-1-1-|
A|--------------------------------|------------------------1-1-1-1-|
                                                           PM-----|

e|--------------------------------|--------------------------------|
B|--------------------------------|--------------------------------|
G|--------------------------------|--------------------------------|
D|3---3---3-------3---3---6---3---|3---3---3-------3---3---3-3-3-3-|
A|2---2---2-------2---2---5---2---|2---2---2-------2---2---2-2-2-2-|
E|1---1---1-------1---1---4---1---|1---1---1-------1---1---1-1-1-1-|
A|--------------------------------|--------------------------------|


[Solo]
(Guitar 1)
e|--------------------------------|--------------------------------|
B|--------------------------------|--------------------------------|
G|--------------------------------|--------------------------------|
D|--------------------------------|--------------------------------|
A|--------------------------------|--------------------------------|
E|------------------------1-1-1-1-|------------------------1-------|
A|1-1-1-1-4-4-4-4-3-3-3-3---------|1-1-1-1-4-4-4-4-3-3-3-3---4-3-0-|

e|--------------------------------|--------------------------------|
B|--------------------------------|--------------------------------|
G|--------------------------------|--------------------------------|
D|--------------------------------|--------------------------------|
A|--------------------------------|--------------------------------|
E|------------------------1-1-1-1-|------------------------1-1-1-1-|
A|1-1-1-1-4-4-4-4-3-3-3-3---------|1-1-1-1-4-4-4-4-3-3-3-3---------|

e|--------------------------------|--------------------------------|
B|--------------------------------|--------------------------------|
G|--------------------------------|--------------------------------|
D|--------------------------------|--------------------------------|
A|--------------------------------|--------------------------------|
E|------------------------1-1-1-1-|------------------------1-------|
A|1-1-1-1-4-4-4-4-3-3-3-3---------|1-1-1-1-4-4-4-4-3-3-3-3---4-3-0-|

e|--------------------------------|-----------------5p4p0-------4p3p0-------|
B|--------------------------------|-----------------------5p4p0-------4p3p0-|
G|--------------------------------|-----------------------------------------|
D|--------------------------------|-----------------------------------------|
A|--------------------------------|-----------------------------------------|
E|------------------------1-1-1-1-|-----------------------------------------|
A|1-1-1-1-4-4-4-4-3-3-3-3---------|-1-1-1-1-4-4-4-4-------------------------|

(Guitar 2)
e|19-19-19-19-19-19-19-19-19-19-19-19-19-19-19-19-|19-19-19-19b20-20-20-20-20-20-20-20r19-19-19-19-|
B|------------------------------------------------|------------------------------------------------|
G|------------------------------------------------|------------------------------------------------|
D|------------------------------------------------|------------------------------------------------|
A|------------------------------------------------|------------------------------------------------|
E|------------------------------------------------|------------------------------------------------|
A|------------------------------------------------|------------------------------------------------|
                                                   Gradually bend, then release

e|19-16----16-------------|-----------------------|
B|------18----18-15-18-15-|---15------------------|
G|------------------------|16----16-13-16-13------|
D|------------------------|------------------15---|
A|------------------------|-----------------------|
E|------------------------|-----------------------|
A|------------------------|-----------------------|

e|------------------------|------------------------|------------------------|-----------------|
B|------------------------|------------------------|------------------------|-----------------|
G|------------------------|------------------------|------16-16-15-15-18-18-|16~--------------|
D|------------------14-14-|------16-16-14-14-17-17-|16-16-------------------|-----------------|
A|14-14-17-17-16-16-------|17-17-------------------|------------------------|-----------------|
E|------------------------|------------------------|------------------------|-----------------|
A|------------------------|------------------------|------------------------|-----------------|


e|--------------------------------|--------------------------------|
B|--------------------------------|--------------------------------|
G|--------------------------------|--------------------------------|
D|--------------------------------|--------------------------------|
A|--------------------------------|--------------------------------|
E|------------------------1-1-1-1-|------------------------1-------|
A|1-1-1-1-4-4-4-4-3-3-3-3---------|1-1-1-1-4-4-4-4-3-3-3-3---4-3-0-|

e|--------------------------------|-----------------5p4p0-------4p3p0-------|
B|--------------------------------|-----------------------5p4p0-------4p3p0-|
G|--------------------------------|-----------------------------------------|
D|--------------------------------|-----------------------------------------|
A|--------------------------------|-----------------------------------------|
E|------------------------1-1-1-1-|-----------------------------------------|
A|1-1-1-1-4-4-4-4-3-3-3-3---------|-1-1-1-1-4-4-4-4-------------------------|


[Verse 3]
(Guitar 1 and 2)
e|--------------------------------|--------------------------------|
B|--------------------------------|--------------------------------|
G|--------------------------------|--------------------------------|
D|----3-3-3-3-3-3-----3-3-3-3-3-3-|----3-3-3-3-3-3-----3---6---3---|(x3)
A|----2-2-2-2-2-2-----2-2-2-2-2-2-|----2-2-2-2-2-2-----2---5---2---|
E|0---1-1-1-1-1-1-0---1-1-1-1-1-1-|0---1-1-1-1-1-1-0---1---4---1---|
A|0---------------0---------------|0---------------0---------------|

e|--------------------------------|--------------------------------|--------------------------------|
B|--------------------------------|--------------------------------|--------------------------------|
G|--------------------------------|--------------------------------|--------------------------------|
D|----3-3-3-3-3-3-----3-3-3-3-3-3-|----3-3-3-3-3-3-----------------|--------------------------------|
A|----2-2-2-2-2-2-----2-2-2-2-2-2-|----2-2-2-2-2-2-----------------|--------------------------------|
E|0---1-1-1-1-1-1-0---1-1-1-1-1-1-|0---1-1-1-1-1-1-2--2--2---------|0-------------------------------|
A|0---------------0---------------|0---------------2--2--2---------|0-------------------------------|


[Outro]
(Guitar 1)
e|--------------------------------|--------------------------------|
B|--------------------------------|--------------------------------|
G|--------------------------------|--------------------------------|
D|--------------------------------|--------------------------------|
A|--------------------------------|--------------------------------|
E|5---5---5---5---5---5---5---5---|5---5---5---5---5---8---8---8---|
A|0---0---0---0---0---0---0---0---|0---0---0---0---0---0---0---0---|
  PM--------------------------------------------------------------|

e|--------------------------------|--------------------------------|
B|--------------------------------|--------------------------------|
G|--------------------------------|--------------------------------|
D|--------------------------------|--------------------------------|
A|--------------------------------|--------------------------------|
E|4---4---4---4---4---4---4---4---|4---4---4---4---4---7---7---7---|
A|0---0---0---0---0---0---0---0---|0---0---0---0---0---0---0---0---|
  PM--------------------------------------------------------------|

e|--------------------------------|--------------------------------|
B|--------------------------------|--------------------------------|
G|--------------------------------|--------------------------------|
D|--------------------------------|--------------------------------|
A|--------------------------------|--------------------------------|
E|1---1---1---1---1---1---1---1---|1---1---1---1---1---1---1---1---|
A|0---0---0---0---0---0---0---0---|0---0---0---0---0---0---0---0---|
  PM--------------------------------------------------------------|

e|--------------------------------|--------------------------------|
B|--------------------------------|--------------------------------|
G|--------------------------------|--------------------------------|
D|--------------------------------|--------------------------------|(x5)
A|--------------------------------|--------------------------------|
E|4---4---4---4---4---4---4---4---|4---4---4---4---4---4---4---4---|
A|0---0---0---0---0---0---0---0---|0---0---0---0---0---0---0---0---|
  PM--------------------------------------------------------------|

(Guitar 2) Son, are you so blind you cannot see?
e|----|--------------------------------|--------------------------------|
B|----|--------------------------------|--------------------------------|
G|----|--------------------------------|--------------------------------|
D|----|--------------------------------|--------------------------------|
A|----|--------------------------------|--------------------------------|
E|5---|5-----------5---5-----------5---|5-----------5---5-----------5---|
A|0---|0-----------0---0-----------0---|0-----------0---0-----------0---|
  PM-------------------------------------------------------------------|

e|--------------------------------|--------------------------------|
B|--------------------------------|--------------------------------|
G|--------------------------------|--------------------------------|
D|--------------------------------|--------------------------------|
A|--------------------------------|--------------------------------|
E|4-----------4---4-----------4---|4-----------4---4-----------4---|
A|0-----------0---0-----------0---|0-----------0---0-----------0---|
  PM--------------------------------------------------------------|

e|--------------------------------|--------------------------------|
B|--------------------------------|--------------------------------|
G|--------------------------------|--------------------------------|
D|--------------------------------|--------------------------------|
A|--------------------------------|--------------------------------|
E|1-----------1---1-----------1---|1-----------1---1-----------1---|
A|0-----------0---0-----------0---|0-----------0---0-----------0---|
  PM--------------------------------------------------------------|

e|--------------------------------|--------------------------------|
B|--------------------------------|--------------------------------|
G|--------------------------------|--------------------------------|
D|--------------------------------|--------------------------------|
A|--------------------------------|--------------------------------|
E|4-----------4---4-----------4---|4-----------4---4-----------4---|
A|0-----------0---0-----------0---|0-----------0---0-----------0---|
  PM--------------------------------------------------------------|

e|--------------------------------|--------------------------------|
B|------8---8-----------8---8-----|------6---6-----------6---6-----|
G|----9---9---9-------9---9---9---|----9---9---9-------9---9---9---|
D|--7-----------7---7-----------7-|--6-----------6---6-----------6-|
A|--------------------------------|--------------------------------|
E|--------------------------------|--------------------------------|
A|--------------------------------|--------------------------------|
  Let Ring

e|--------0---------------0-------|--------0---------------0-------|
B|------6---6-----------6---6-----|------6---6-----------6---6-----|
G|----5-------5-------5-------5---|----5-------5-------5-------5---|
D|--3-----------3---3-----------3-|--2-----------2---2-----------2-|(x3)
A|--------------------------------|--------------------------------|
E|--------------------------------|--------------------------------|
A|--------------------------------|--------------------------------|

(Guitar 1 and 2)
e|--------------------------------|-----------------------------------|
B|--------------------------------|-----------------------------------|
G|--------------------------------|-----------------------------------|
D|7---7---7---7---7---7---7---7---|7---7---7---7---7---10---10---10---|
A|--------------------------------|-----------------------------------|
E|5---5---5---5---5---5---5---5---|5---5---5---5---5---8----8----8----|
A|--------------------------------|-----------------------------------|

e|----------------------------------------|----------------------------------------|
B|----------------------------------------|----------------------------------------|
G|----------------------------------------|----------------------------------------|
D|12---12---12---12---12---12---12---12---|12---12---12---12---12---12---12---12---|
A|----------------------------------------|----------------------------------------|
E|10---10---10---10---10---10---10---10---|10---10---10---10---10---10---10---10---|
A|----------------------------------------|----------------------------------------|

e|----------------------------------------|----------------------------------------|
B|----------------------------------------|----------------------------------------|
G|----------------------------------------|----------------------------------------|
D|15---15---15---15---15---15---15---15---|14---14---14---14---14---14---14---14---|(x2)
A|----------------------------------------|----------------------------------------|
E|13---13---13---13---13---13---13---13---|12---12---12---12---12---12---12---12---|
A|----------------------------------------|----------------------------------------|


[Breakdown]
(Guitar 1 and 2)
e|--------------------------------|--------------------------------|--------------------------------|
B|--------------------------------|--------------------------------|--------------------------------|
G|--------------------------------|--------------------------------|--------------------------------|
D|--------------------------------|--------------------------------|--------------------------------|
A|--------------------------------|--------------------------------|7-------3---3---3---6---6-------|
E|0---0---0---0---0---0---0---0---|0---0---0---0---0---0---0---0---|--------------------------------|
A|1---1---1---1---1---1---1---1---|1---1---1---1---1---1---1---1---|7-------3---3---3---6---6-------|
      PM-----|        PM-----|         PM-----|        PM---------|

e|--------------------------------|--------------------------------|--------------------------------|
B|--------------------------------|--------------------------------|--------------------------------|
G|--------------------------------|--------------------------------|--------------------------------|
D|--------------------------------|--------------------------------|--------------------------------|(x2)
A|--------------------------------|--------------------------------|7-------3---3-----------2-------|
E|0---0---0---0---0---0---0---0---|0---0---0---0---0---0---0---0---|--------------------------------|
A|1---1---1---1---1---1---1---1---|1---1---1---1---1---1---1---1---|7-------3---3-----------2-------|
      PM-----|        PM-----|         PM-----|        PM---------|

e|--------------------------------|--------------------------------|
B|--------------------------------|--------------------------------|
G|--------------------------------|--------------------------------|
D|--------------------------------|--------------------------------|(x2)
A|--------------------------------|--------------------------------|
E|0---0---0---0---0---0---0---0---|0---0---0---0---0---0---0---0---|
A|1---1---1---1---1---1---1---1---|1---1---1---1---1---1---1---1---|
      PM-----|        PM-----|         PM-----|        PM-----|
  on second time, palm mute last note

e|--------------------------------|
B|--------------------------------|
G|--------------------------------|
D|--------------------------------|
A|0-------------------------------|
E|0-------------------------------|
A|0-------------------------------|



************************************

| p   Pull-off
| r   Release
| b   Bend
| ~   Vibrato
| PM  Palm mute

************************************

            
            
Suggest correction
Creating personal tab
Creating personal tab
You can edit any tab online and save it as your Personal.

You can edit, replace or remove any tab part or add personal notes – all changes will be seen only by you.

Personal tabs can be accessed anytime from any device, even offline.
Learn more »
Give kudos to tab author, rate the tab!
1 2 3 4 5
comments
print report bad tab
1 comment total.
0 reply
LMBozovich 1,014 Jun 24, 2017 01:18 AM

Guys, gals, thanks for viewing this tab. Make sure to rate.

guest
You may want to rate the tab now too:
select rating
Wanna post a correction for this tab? Suggest correction