Oops, an error
Loading. Please wait.

Tremors tab

version 1
version 1

Whole song

  • This version makes a few adjustments based off lis... Show more
826 views 3 this week
7 commentsread comments
1 2 3 4 5
x 4
add to favorites
×
Save as Personal and add changes to this tab that will be seen only by you. Learn more ›
×
You can save this tab as Personal to edit and correct it or add notes. All changes will be seen only by you. Learn more »
launch autoscroll
font size
0
reset
how to read this tab
guitar tuner
edit
Autoscroll
slow
fast
+/-
esc
set tempo
stop
Author
Difficulty
Fit For An Autopsy
Tremors
Hellbound (2013)

Favorite track of the album so had to have a go at it, worked out by ear and visual
through live videos from
the band.

For more info contact:
info@studio26a.co.uk
www.studio26a.co.uk/tuition

Tuning - 7 String AEADGBE (Drop A)
Key - Cm/Chromatic

The weird sections across the verse marked as "x's" are pick scrapes.

Intro (Guitar 1 w/Reverb)

e|-----------------------------------------------------------------------------------|
B|---------------------------------------------------------------4--4--4--4--4--4----|
G|---------------------------------------------------------------7--7--7--7--7--7----|
D|---------------------0-------------------------------------------------------------|
A|-3--3/(6)-6~------6-------6-----3--3/(6)-6----6\(5)--5-----~-----------------------|
E|-----------------------0-----------------------------------------------------------|
A|-3--3/(6)-6~----6---6-------6---3--3/(6)-6----6\(5)--5~------5---------------------|
                  Let Ring.....                                  Let Ring.......


e|-------------------------------------------------------------------------------|
B|-------------------------------------------------------------------------------|
G|-------------------------------------------------------------------------------|
D|---------------------0---------------------------------------------------------|
A|-3--3/(6)-6~------6-------6-----3--3/(6)-6----6\-1-----~-----------------------|
E|-----------------------0---------------------------------0--0--0--0--0--0------|
A|-3--3/(6)-6~----6---6-------6---3--3/(6)-6----6\-1~------0--0--0--0--0--0------|
                  Let Ring.....                            p.m.............


Intro again w/Guitar two starts "mountains of bones..."

e|-----------------------------------------------------------------------------------|
B|---------------------------------------------------------------4--4--4--4--4--4----|
G|---------------------------------------------------------------7--7--7--7--7--7----|
D|---------------------0-------------------------------------------------------------|
A|-3--3/(6)-6~------6-------6-----3--3/(6)-6----6\(5)--5-----~-----------------------|
E|-----------------------0-----------------------------------------------------------|
A|-3--3/(6)-6~----6---6-------6---3--3/(6)-6----6\(5)--5~------5---------------------|
                  Let Ring.....                                  Let Ring.......


e|-------------------------------------------------------------------------------|
B|-------------------------------------------------------------------------------|
G|-------------------------------------------------------------------------------|
D|---------------------0---------------------------------------------------------|x2
A|-3--3/(6)-6~------6-------6-----3--3/(6)-6----6\-1-----~-----------------------|
E|-----------------------0---------------------------------0--0--0--0--0--0------|
A|-3--3/(6)-6~----6---6-------6---3--3/(6)-6----6\-1~------0--0--0--0--0--0------|
                  Let Ring.....                            p.m.............

Variation on the last time of the intro: "a life so..."

A|-------------------|
E|--0--0--0----------|
A|--0--0--0--0-------|
    p.m....


Verse 1 - This section has an interesting rhythm, listen out for it.

Guitar 1
e|---------------------------------------------------4p3p0----------------------------------------------|
B|-4~--------------------4~--------------------5p4p0--------4~------------4~------7--7--7--7--4--4--4---|
G|-7~--------------------7~---------------------------------7~------------7~------10-10-10-10-7--7--7---|
D|------------------------------------------------------------------------------------------------------|
A|----------3\1----------------3\1-----------------------------------3\1--------------------------------|
E|----0--0--------0--0------0---------0--0--0------------------0--0-------------------------------------|
A|----0--0--3\1---0--0------0--3\1----0--0--0------------------0--0--3\1--------------------------------|
      p.m.        p.m.      p.m       p.m...                   p.m.

Guitar 2
e|-x--------------------------------------------------7p6p0----------------------------------------------|
B|--x---------------------4~--------------------8p7p0--------4~------------4~------7--7--7--7--4--4--4---|
G|--~x--------------------7~---------------------------------7~------------7~------10-10-10-10-7--7--7---|
D|----x--------------------------------------------------------------------------------------------------|
A|-----x-------3\1----------------3\1-----------------------------------3\1------------------------------|
E|-------0--0--------0--0------0---------0--0--0------------------0--0-----------------------------------|
A|-------0--0--3\1---0--0------0--3\1----0--0--0------------------0--0--3\1------------------------------|
         p.m.        p.m.      p.m       p.m...                   p.m.


Guitar 1
e|---------------------------------------------------4p3p0----------------------------------------------|
B|-4~--------------------4~--------------------5p4p0--------4~------------4~------7--7--7--7--4--4--4---|
G|-7~--------------------7~---------------------------------7~------------7~------10-10-10-10-7--7--7---|
D|------------------------------------------------------------------------------------------------------|
A|----------3\1----------------3\1-----------------------------------3\1--------------------------------|
E|----0--0--------0--0------0---------0--0--0------------------0--0-------------------------------------|
A|----0--0--3\1---0--0------0--3\1----0--0--0------------------0--0--3\1--------------------------------|
      p.m.        p.m.      p.m       p.m...                   p.m.

Guitar 2
e|---------------------------------------------------4p3p0----------------------------------------------|
B|-4~--------------------4~--------------------5p4p0--------4~------------4~------7--7--7--7--4--4--4---|
G|-7~--------------------7~---------------------------------7~------------7~------10-10-10-10-7--7--7---|
D|------------------------------------------------------------------------------------------------------|
A|----------3\1----------------3\1-----------------------------------3\1--------------------------------|
E|----0--0--------0--0------0---------0--0--0------------------0--0-------------------------------------|
A|----0--0--3\1---0--0------0--3\1----0--0--0------------------0--0--3\1--------------------------------|
      p.m.        p.m.      p.m       p.m...                   p.m.

Guitar 1
e|-x--------------------------------------------------7p6p0----------------------------------------------|
B|--x---------------------4~--------------------8p7p0--------4~------------4~------7--7--7--7--4--4--4---|
G|--~x--------------------7~---------------------------------7~------------7~------10-10-10-10-7--7--7---|
D|----x--------------------------------------------------------------------------------------------------|
A|-----x-------3\1----------------3\1-----------------------------------3\1------------------------------|
E|-------0--0--------0--0------0---------0--0--0------------------0--0-----------------------------------|
A|-------0--0--3\1---0--0------0--3\1----0--0--0------------------0--0--3\1------------------------------|
         p.m.        p.m.      p.m       p.m...                   p.m.

Guitar 2
e|-x--------------------------------------------------7p6p0----------------------------------------------|
B|--x---------------------4~--------------------8p7p0--------4~------------4~------7--7--7--7--4--4--4---|
G|--~x--------------------7~---------------------------------7~------------7~------10-10-10-10-7--7--7---|
D|----x--------------------------------------------------------------------------------------------------|
A|-----x-------3\1----------------3\1-----------------------------------3\1------------------------------|
E|-------0--0--------0--0------0---------0--0--0------------------0--0-----------------------------------|
A|-------0--0--3\1---0--0------0--3\1----0--0--0------------------0--0--3\1------------------------------|
         p.m.        p.m.      p.m       p.m...                   p.m.

Both Guitars
e|----------------------------------------------------7p6p0----------------------------------------------|
B|------------------------4~--------------------8p7p0--------4~------------4~------7--7--7--7--4--4--4---|
G|--~---------------------7~---------------------------------7~------------7~------10-10-10-10-7--7--7---|
D|-------------------------------------------------------------------------------------------------------|x2
A|-------------3\1----------------3\1-----------------------------------3\1------------------------------|
E|-------0--0--------0--0------0---------0--0--0------------------0--0-----------------------------------|
A|-5b----0--0--3\1---0--0------0--3\1----0--0--0------------------0--0--3\1------------------------------|
         p.m.        p.m.      p.m       p.m...                   p.m.

Verse 2 Still unsure on a couple of chugs here

"This is not what we're meant to be"

Guitar 1
e|------------------------------------------------------------------------------------|
B|------------------------------------------------------------------------------------|
G|------------------------------------------------------------------------------------|
D|---------------------------------------------------------/8--7----------------------|
A|-5-5-5-5-5-5-5-5-5-------6-6-6-6-6-6-6-6--------------------------------------------|
E|--------------------3--5------------------3--5--3--2--3--/6--5---2--3--2------------|
A|--------------------3--5------------------3--5--3--2--3----------2--3--2------------|
                      p.m.                  p.m..........          p.m....

e|------------------------------------------------------------------------------------|
B|------------------------------------------------------------------------------------|
G|------------------------------------------------------------------------------------|
D|------------------------------------------------5/(7)-7-7-7/(8)-8-8-8\(7)-----------|
A|-5-5-5-5-5-5-5-5-5-------6-6-6-6-6-6-6-6--------------------------------------6h9---|
E|--------------------3--5------------------5--3--3/(5)-5-5-5/(6)-6-6-6\(6)-5h8-------|
A|--------------------3--5------------------5--3--------------------------------------|
                      p.m.                  p.m.

Guitar 2
e|------------------------------------------------------------------------------------|
B|------------------------------------------------------------------------------------|
G|------------------------------------------------------------------------------------|
D|------------------------------------------------------------------------------------|
A|-5----------------------------------------------------------------------------------|
E|-5---------------------------------------------------------------2--3--2------------|
A|-5---------------------------------------------------------------2--3--2------------|
                                                                   p.m....


e|------------------------------------------------------------------------------------|
B|------------------------------------------------------------------------------------|
G|------------------------------------------------------------------------------------|
D|------------------------------------------------5/(7)-7-7-7/(8)-8-8-8\(7)-----------|
A|-5-5-5-5-5-5-5-5-5-------6-6-6-6-6-6-6-6--------------------------------------6h9---|
E|--------------------3--5------------------5--3--3/(5)-5-5-5/(6)-6-6-6\(6)-5h8-------|
A|--------------------3--5------------------5--3--------------------------------------|
                      p.m.                  p.m.


Both Guitars "Scared and blinded.."

e|------------------------------------------------------------------------------------|
B|------------------------------------------------------------------------------------|
G|------------------------------------------------------------------------------------|
D|---------------------------------------------------------/8--7----------------------|
A|-5-5-5-5-5-5-5-5-5-------6-6-6-6-6-6-6-6--------------------------------------------|
E|--------------------3--5------------------3--5--3--2--3--/6--5---2--3--2------------|
A|--------------------3--5------------------3--5--3--2--3----------2--3--2------------|
                      p.m.                  p.m..........          p.m....

e|------------------------------------------------------------------------------------|
B|------------------------------------------------------------------------------------|
G|------------------------------------------------------------------------------------|
D|------------------------------------------------5/(7)-7-7-7/(8)-8-8-8\(7)-----------|x2
A|-5-5-5-5-5-5-5-5-5-------6-6-6-6-6-6-6-6--------------------------------------6h9---|
E|--------------------3--5------------------5--3--3/(5)-5-5-5/(6)-6-6-6\(6)-5h8-------|
A|--------------------3--5------------------5--3--------------------------------------|
                      p.m.                  p.m.

Verse 3

no rest, strait in "i watch them burn alive.."


Slight palm mute throughout the tremolo

Both guitars
e|------------------------------------------------------------------------------------------------------|
B|------------------------------------------------------------------------------------------------------|
G|------------------------------------------------------------------------------------------------------|
D|-8-8-------------------7-7----------------------------------------8-8-----------------7-7-------------|
A|-----6-6-5-5----------------6-6-5-5-----------------------------------6-6-5-5-------------6-6-5-5-----|
E|--------------8-8-8-8-----------------6-6----5-5-5-5-3-3-5-5-6-6--------------8-8-8-8-----------------|
A|------------------------------------5------3----------------------------------------------------------|

e|-------------------------|
B|-------------------------|
G|-------------------------|
D|--8--8--5--5/7-----------|
A|---------------------6h9-|
E|--6--6--3--3/5---5h8-----|
A|-------------------------|

guitar one plays twice

Guitar 2 harmony over second repetition
e|-----------------------------------|
B|-----------------------------------|
G|-7-7-----------------5-5-----------|
D|-----5-5-4-4-------------5-5-4-4---|
A|-------------6-6-6-6---------------|
E|-----------------------------------|
A|-----------------------------------|

End of section variation
"Hellbound"
e|--------------------------|
B|--------------------------|
G|--------------------------|
D|--8--8--5--5/(7)-7-7-7----|
A|--------------------------|
E|--6--6--3--3/(5)-5-5-5----|
A|------------------------0-|

Verse 3 "take down narrow paths"


Both guitars
e|------------------------------------------------------------------------------------------------------|
B|------------------------------------------------------------------------------------------------------|
G|------------------------------------------------------------------------------------------------------|
D|------------------------------------------------------------------------------------------------------|
A|--------------------------------------------8p7p5-----------------------------------------------------|
E|-------------------6p5p3---------6p5p3-------------6p5p3h5--6p5p3-------------6p5p3------------5-5-5-5|
A|-3/5--0-0-0-0-0-0--------0-0-0-0-------0-0------------------------0-0-0-0-0-0-------0-0-3-3-3-3-------|
        p.m........        p.m....       p.m                        p.m........       p.m...............

e|-----------------|
B|---------4-4-4-4-|
G|---------7-7-7-7-|
D|---------5-5-5-5-|x2
A|-----------------|
E|-----------------|
A|-5-5-5-5---------|
  p.m.....

End of section variation
"The lost direction of man"

Both guitars
e|---------|
B|---------|
G|---------|
D|---------|
A|---------|
E|---------|
A|-5-5-5-5-|
  p.m.....

Build up - same as intro minus the ring out

Both Guitars
e|-----------------------------------------------------------------------------------|
B|---------------------------------------------------------------4--4--4--4--4--4----|
G|---------------------------------------------------------------7--7--7--7--7--7----|
D|---------------------0-------------------------------------------------------------|
A|-3--3/(6)-6~------6-------6-----3--3/(6)-6----6\(5)--5-----~-----------------------|
E|-----------------------0-----------------------------------------------------------|
A|-3--3/(6)-6~----6---6-------6---3--3/(6)-6----6\(5)--5~------5---------------------|
                  Let Ring.....                                  Let Ring.......

e|-----------------------------------------------------------------------------------|
B|---------------------------------------------------------------4--4--4--4--4--4----|
G|---------------------------------------------------------------7--7--7--7--7--7----|
D|-----------------------------------------------------------------------------------|x2
A|-3--3/(6)-6~-----------------3--3/(6)-6----6\(1)--1-----~--------------------------|
E|-----------------------------------------------------------------------------------|
A|-3--3/(6)-6~-----------------3--3/(6)-6----6\(1)--1~------0------------------------|
                                                                 Let Ring.......

last variation "a life so"
e|--------------------------------|
B|--------------------------------|
G|--------------------------------|
D|--------------------------------|
A|-3--3/(6)-6----6\(1)--1-----~---|
E|--------------------------------|
A|-3--3/(6)-6----6\(1)--1~------0-|

Breakdown/Outro

Lead Guitar (Can't work out the effect, probably some sort of chorus & Reverb)
Carries until the end
e|---------------------------------|
B|-4-4-4-4-4-4-4-4-4-4-4-4-4-4-4-4-|
G|-7-7-7-7-7-7-7-7-7-7-7-7-7-7-7-7-|
D|-5-5-5-5-5-5-5-5-5-5-5-5-5-5-5-5-|
A|---------------------------------|
E|---------------------------------|
A|---------------------------------|


Both guitars
e|-----------------------------------------------------------------------------------------------|
B|-----------------------------------------------------------------------------------------------|
G|-----------------------------------------------------------------------------------------------|
D|-----------------------------------------------------------------------------------------------|
A|-----------------------------------------------------------------------------------------------|
E|-----------------------------------------------------------------------------------------------|
A|-0000----------------000---000-------000--000-----0------000000-----------000--000--------0----|
   p.m.                p.m   p.m       p.m  p.m     p.m    p.m...           p.m  p.m
   p.m


third note, hit so bends out slightly
e|-----------------------------------------------------------------------------------------------|
B|---------------------------------------------------------------Pick slide ---------------------|
G|---------------------------------------------------------------x-x-x-x-x-x---------------------|
D|---------------------------------------------------------------x-x-x-x-x-x---------------------|x4
A|-----------------------------------------------------------------------------------------------|
E|-----------------------------------------------------------------------------------------------|
A|-000~----------------000---000-------000--000-----0------000000-----------000--000--------0----|
   p.                  p.m   p.m       p.m  p.m     p.m    p.m...           p.m  p.m

            
            
Suggest correction
Creating personal tab
Creating personal tab
You can edit any tab online and save it as your Personal.

You can edit, replace or remove any tab part or add personal notes – all changes will be seen only by you.

Personal tabs can be accessed anytime from any device, even offline.
Learn more »
comments
print report bad tab
7 comments total. Showing first comments.
0 reply
ScarsCrucifix 10 Mar 23, 2017 07:38 PM

Can somebody please do a guitar pro version of this? More Tabs for this band would be nice too

0 reply
LMBozovich 1,140 Jun 22, 2017 02:46 AM

check out the new tabs I posted, as well as my version of Saltwound, which contains the solo

0 reply
georgefall5 52 Mar 28, 2017 10:24 AM

What tracks?

guest
You may want to rate the tab now too:
select rating
Wanna post a correction for this tab? Suggest correction