Oops, an error
Loading. Please wait.

Tremors tab

version 2
version 2

Whole song

  • This version makes a few adjustments based off lis... Show more
43 views 3 this week
1 commentread comment
1 2 3 4 5
3 more votes to show rating
add to favorites
×
Save as Personal and add changes to this tab that will be seen only by you. Learn more ›
×
You can save this tab as Personal to edit and correct it or add notes. All changes will be seen only by you. Learn more »
launch autoscroll
font size
0
reset
how to read this tab
guitar tuner
edit
Autoscroll
slow
fast
+/-
esc
set tempo
stop
About this tab version
This version makes a few adjustments based off listening to the song, and comparing it to the previous tab, conforms more to the preferred format, and is a lot simpler in writing format as the previous version had some inconsistencies both in notes played and in format. Was this info helpful? Yes No
[Intro]
(Guitar 1)
e|--------------------------------|--------------------------------|
B|--------------------------------|--------------------------------|
G|--------------------------------|----------------0---------------|
D|--------------------------------|--------------------------------|
A|3------/6---6~------------------|--------6---------------6-------|
E|--------------------------------|--------------------0-----------|
A|3------/6---6~------------------|----6-------6---------------6---|
                                   Let Ring

e|--------------------------------|--------------------------------|
B|--------------------------------|------------4---4---4---4---4---|
G|--------------------------------|------------7---7---7---7---7---|
D|--------------------------------|--------------------------------|
A|3------/6---6~-----\5---5~------|--------------------------------|
E|--------------------------------|--------------------------------|
A|3------/6---6~-----\5---5~------|----5---5-----------------------|

e|--------------------------------|--------------------------------|
B|--------------------------------|--------------------------------|
G|--------------------------------|----------------0---------------|
D|--------------------------------|--------------------------------|
A|3------/6---6~------------------|--------6---------------6-------|
E|--------------------------------|--------------------0-----------|
A|3------/6---6~------------------|----6-------6---------------6---|
                                   Let Ring

e|--------------------------------|--------------------------------|
B|--------------------------------|--------------------------------|
G|--------------------------------|--------------------------------|
D|--------------------------------|--------------------------------|
A|3------/6---6------\1---1~------|--------------------------------|
E|--------------------------------|----0---0---0---0---0---0-------|
A|3------/6---6------\1---1~------|----0---0---0---0---0---0-------|
                                       PM---------------------|
                                       (Guitar 2 comes in)

[Hook 1]
(Guitar 1 and 2)
e|--------------------------------|--------------------------------|
B|--------------------------------|--------------------------------|
G|--------------------------------|----------------0---------------|
D|--------------------------------|--------------------------------|
A|3---3--/6---6~------------------|--------6---------------6-------|
E|--------------------------------|--------------------0-----------|
A|3---3--/6---6~------------------|----6-------6---------------6---|
                                   Let Ring

e|--------------------------------|--------------------------------|
B|--------------------------------|--------4---4---4---4---4---4---|
G|--------------------------------|--------7---7---7---7---7---7---|
D|--------------------------------|--------------------------------|
A|3---3--/6---6~-----\5---5~------|--------------------------------|
E|--------------------------------|--------------------------------|
A|3---3--/6---6~-----\5---5~------|----5---------------------------|

e|--------------------------------|--------------------------------|
B|--------------------------------|--------------------------------|
G|--------------------------------|----------------0---------------|
D|--------------------------------|--------------------------------|
A|3---3--/6---6~------------------|--------6---------------6-------|
E|--------------------------------|--------------------0-----------|
A|3---3--/6---6~------------------|----6-------6---------------6---|
                                   Let Ring

                                   1st Ending                       2nd Ending
e|--------------------------------|--------------------------------|--------------------------------|
B|--------------------------------|--------------------------------|--------------------------------|
G|--------------------------------|--------------------------------|--------------------------------|
D|--------------------------------|--------------------------------|--------------------------------|
A|3---3--/6---6------\1---1~------|--------------------------------|--------------------------------|
E|--------------------------------|----0---0---0---0---0---0-------|----0---0---0---0---------------|
A|3---3--/6---6------\1---1~------|----0---0---0---0---0---0-------|----0---0---0---0---------------|
                                       PM----------------------|        PM--------------|

[Verse 1]
(Guitar 1)
e|x-----------------------------------|-------------------------------4p3p0--|
B|-x------------------------------4---|------------------------5p4p0---------|
G|--x-----------------------------7---|--------------------------------------|
D|---x--------------------------------|--------------------------------------|
A|----x-----------3--\1---------------|----3--\1-----------------------------|
E|-----x--0---0-----------0---0-------|0-----------0---0---0-----------------|
A|--------0---0---3--\1---0---0-------|0---3--\1---0---0---0-----------------|
          PM-----|        PM-----|     PM          PM---------|

e|x-----------------------------------|------------------------------------|
B|-x------------------------------4---|----8----8----8----8----4---4---4---|
G|--x-----------------------------7---|----11---11---11---11---7---7---7---|
D|---x--------------------------------|------------------------------------|(x2)
A|----x-----------3--\1---------------|------------------------------------|
E|-----x--0---0-----------0---0-------|------------------------------------|
A|--------0---0---3--\1---0---0-------|------------------------------------|
          PM-----|        PM-----|

(Guitar 2)
e|x-----------------------------------|-------------------------------7p6p0--|
B|-x------------------------------4---|------------------------8p7p0---------|
G|--x-----------------------------7---|--------------------------------------|
D|---x--------------------------------|--------------------------------------|
A|----x-----------3--\1---------------|----3--\1-----------------------------|
E|-----x--0---0-----------0---0-------|0-----------0---0---0-----------------|
A|--------0---0---3--\1---0---0-------|0---3--\1---0---0---0-----------------|
          PM-----|        PM-----|     PM          PM---------|

e|x-----------------------------------|------------------------------------|
B|-x------------------------------4---|----8----8----8----8----4---4---4---|
G|--x-----------------------------7---|----11---11---11---11---7---7---7---|
D|---x--------------------------------|------------------------------------|(x2)
A|----x-----------3--\1---------------|------------------------------------|
E|-----x--0---0-----------0---0-------|------------------------------------|
A|--------0---0---3--\1---0---0-------|------------------------------------|

(Guitar 1 and 2)
e|--------------------------------|-------------------------------4p3p0--|
B|----------------------------4---|------------------------5p4p0---------|
G|----------------------------7---|--------------------------------------|
D|--------------------------------|--------------------------------------|
A|------------3--\1---------------|----3--\1-----------------------------|
E|----0---0-----------0---0-------|0-----------0---0---0-----------------|
A|5br-0---0---3--\1---0---0-------|0---3--\1---0---0---0-----------------|
      PM-----|        PM-----|     PM          PM---------|

e|--------------------------------|------------------------------------|
B|----------------------------4---|----8----8----8----8----4---4---4---|
G|----------------------------7---|----11---11---11---11---7---7---7---|
D|--------------------------------|------------------------------------|(x2)
A|------------3--\1---------------|------------------------------------|
E|----0---0-----------0---0-------|------------------------------------|
A|5br-0---0---3--\1---0---0-------|------------------------------------|
      PM-----|        PM-----|

[Break]
(Guitar 1)
e|--------------------------------------------|--------------------------------|
B|--------------------------------------------|--------------------------------|
G|--------------------------------------------|--------------------------------|
D|--------------------------------------------|------------8--\7---------------|
A|5-5-5--5-5-5----------6-6-6--6-6-6----------|--------------------------------|
E|--------------3---5-----------------5---3---|3---2---3---6--\5---2---3---2---|
A|--------------3---5-----------------5---3---|3---2---3-----------2---3---2---|
                PM-----|              PM------------------|        PM---------|

e|--------------------------------------------|-----------------------------------|
B|--------------------------------------------|-----------------------------------|
G|--------------------------------------------|-----------------------------------|
D|--------------------------------------------|5/7-7-7--7/8-8-8--8\7-7-7----------|
A|5-5-5--5-5-5----------6-6-6--6-6-6----------|-------------------------------6h9-|
E|--------------3---5-----------------5---3---|3/5-5-5--5/6-6-6--6\5-5-5--5h8-----|
A|--------------3---5-----------------5---3---|-----------------------------------|
                PM-----|              PM-----|

(Guitar 2)
e|--------------------------------|------------------------------|
B|--------------------------------|------------------------------|
G|--------------------------------|------------------------------|
D|--------------------------------|------------------------------|
A|5-------------------------------|------------------------------|
E|5-------------------------------|--------------------2--3--2---|
A|5-------------------------------|--------------------2--3--2---|
                                                       PM-------|

e|--------------------------------------------|-----------------------------------|
B|--------------------------------------------|-----------------------------------|
G|--------------------------------------------|-----------------------------------|
D|--------------------------------------------|5/7-7-7--7/8-8-8--8\7-7-7----------|
A|5-5-5--5-5-5----------6-6-6--6-6-6----------|-------------------------------6h9-|
E|--------------3---5-----------------5---3---|3/5-5-5--5/6-6-6--6\5-5-5--5h8-----|
A|--------------3---5-----------------5---3---|-----------------------------------|
                PM-----|              PM-----|

[Post-Break]
(Guitar 1 and 2)
e|--------------------------------------------|--------------------------------|
B|--------------------------------------------|--------------------------------|
G|--------------------------------------------|--------------------------------|
D|--------------------------------------------|------------8--\7---------------|
A|5-5-5--5-5-5----------6-6-6--6-6-6----------|--------------------------------|
E|--------------3---5-----------------5---3---|3---2---3---6--\5---2---3---2---|
A|--------------3---5-----------------5---3---|3---2---3-----------2---3---2---|
                PM-----|              PM------------------|        PM---------|

e|--------------------------------------------|-----------------------------------|
B|--------------------------------------------|-----------------------------------|
G|--------------------------------------------|-----------------------------------|
D|--------------------------------------------|5/7-7-7--7/8-8-8--8\7-7-7----------|(x2)
A|5-5-5--5-5-5----------6-6-6--6-6-6----------|-------------------------------6h9-|
E|--------------3---5-----------------5---3---|3/5-5-5--5/6-6-6--6\5-5-5--5h8-----|
A|--------------3---5-----------------5---3---|-----------------------------------|
                PM-----|              PM-----|


[Bridge Part 1]
(Guitar 1)                         1st Ending                       2nd Ending
e|--------------------------------|--------------------------------|--------------------------------|
B|--------------------------------|--------------------------------|--------------------------------|
G|--------------------------------|--------------------------------|--------------------------------|
D|8-8-----------------7-7---------|----------------------------7-7-|----8---8---5---5--/7-----------|
A|----6-6-5-5-------------6-6-5-5-|--------------------------------|----------------------------6h9-|
E|------------8-8-8-8-------------|--6-6---5-5-5-5-3-3-5-5-6-6-----|----6---6---3---3--/5---5h8-----|
A|--------------------------------|5-----3-------------------------|--------------------------------|


(Guitar 2)                         1st Ending                       2nd Ending
e|--------------------------------|--------------------------------|--------------------------------|
B|--------------------------------|--------------------------------|--------------------------------|
G|--------------------------------|--------------------------------|--------------------------------|
D|8-8-----------------7-7---------|----------------------------7-7-|----8---8---5---5--/7-----------|
A|----6-6-5-5-------------6-6-5-5-|--------------------------------|----------------------------6h9-|
E|------------8-8-8-8-------------|--6-6---5-5-5-5-3-3-5-5-6-6-----|----6---6---3---3--/5---5h8-----|
A|--------------------------------|5-----3-------------------------|--------------------------------|

                                             1st Ending                         2nd Ending
e|------------------------------------------|----------------------------------|------------------------|---|
B|------------------------------------------|----------------------------------|------------------------|---|
G|------------------------------------------|----------------------------------|------------------------|---|
D|12-12---------------------10-10-----------|----------------------------10-10-|8--8--5--5--7--7--7--7--|---|
A|------9-9-8-8-------------------10-10-9-9-|----------------------------------|------------------------|---|
E|--------------11-11-11-11-----------------|--9-9---8-8-8-8-6-6-8-8-9-9-------|6--6--3--3--5--5--5--5--|0--|
A|------------------------------------------|8-----6---------------------------|------------------------|0--|


[Bridge Part 2]
(Guitar 1 and 2)
e|--------------------------------|--------------------------------|
B|--------------------------------|--------------------------------|
G|--------------------------------|--------------------------------|
D|--------------------------------|--------------------------------|
A|--------------------------------|----------------8p7p5-----------|
E|--------------------6p5p3-------|----6p5p3-------------5h6p5p3h5-|
A|3/5-0-0-0-0-0-0-0-0-------0-0-0-|0-0-------0-0-0-----------------|
      PM-------------|      PM--------|      PM---|

                                   1st Ending                       2nd Ending  The lost direction of man
e|--------------------------------|--------------------------------|--------------------------------|
B|--------------------------------|------------------------4-4-4-4-|--------------------------------|
G|--------------------------------|------------------------7-7-7-7-|--------------------------------|
D|--------------------------------|------------------------5-5-5-5-|--------------------------------|
A|--------------------------------|--------------------------------|--------------------------------|
E|6p5p3---------------6p5p3-------|--------5-5-5-5-----------------|--------5-5-5-5-----------------|
A|------0-0-0-0-0-0-0-------0-0-0-|3-3-3-3---------5-5-5-5---------|3-3-3-3-------------------------|


[Hook 2]
(Guitar 1 and 2)
e|--------------------------------|--------------------------------|
B|--------------------------------|--------------------------------|
G|--------------------------------|----------------0---------------|
D|--------------------------------|--------------------------------|
A|3---3--/6---6~------------------|--------6---------------6-------|
E|--------------------------------|--------------------0-----------|
A|3---3--/6---6~------------------|----6-------6---------------6---|
                                   Let Ring

e|--------------------------------|--------------------------------|
B|--------------------------------|--------4---4---4---4---4---4---|
G|--------------------------------|--------7---7---7---7---7---7---|
D|--------------------------------|--------------------------------|
A|3---3--/6---6~-----\5---5~------|--------------------------------|
E|--------------------------------|--------------------------------|
A|3---3--/6---6~-----\5---5~------|----5---------------------------|

e|--------------------------------|--------------------------------|
B|--------------------------------|--------------------------------|
G|--------------------------------|----------------0---------------|
D|--------------------------------|--------------------------------|
A|3---3--/6---6~------------------|--------6---------------6-------|
E|--------------------------------|--------------------0-----------|
A|3---3--/6---6~------------------|----6-------6---------------6---|
                                   Let Ring

                                   1st Ending                       2nd Ending
e|--------------------------------|--------------------------------|--------------------------------|
B|--------------------------------|--------------------------------|--------------------------------|
G|--------------------------------|--------------------------------|--------------------------------|
D|--------------------------------|--------------------------------|--------------------------------|
A|3---3--/6---6------\1---1~------|--------------------------------|--------------------------------|
E|--------------------------------|----0---0---0---0---0---0-------|0-------------------------------|
A|3---3--/6---6------\1---1~------|----0---0---0---0---0---0-------|0-------------------------------|
                                       PM----------------------|


[Outro/Breakdown]
(Guitar 1 and 2)
e|--------------------------------------|------------------------------------------------|
B|--------------------------------------|------------------------------------------------|
G|--------------------------------------|------------------------------------------------|
D|--------------------------------------|------------------------------------------------|
A|--------------------------------------|------------------------------------------------|
E|0-0-0--0------------------------------|----0-0-0---0-0-0-----------0-0-0---0-0-0-------|
A|0-0-0--0------------------------------|----0-0-0---0-0-0-----------0-0-0---0-0-0-------|
  PM------|                                  PM-----------|          PM-----------|

e|--------------------------------------|------------------------------------------------|
B|--------------------------------------|------------------------------------------------|
G|--------------------------------------|------------------------------------------------|
D|--------------------------------------|------------------------------------------------|
A|--------------------------------------|------------------------------------------------|
E|0-------0-0-0--0-0-0--0---------------|------------0-0-0--0-0-0----------------0-------|
A|0-------0-0-0--0-0-0--0---------------|------------0-0-0--0-0-0----------------0-------|
  PM      PM-------------|                           PM----------|               PM

e|--------------------------------------|------------------------------------------------|
B|--------------------------------------|------------------------------------------------|
G|--------------------------------------|------------------------------------------------|
D|--------------------------------------|------------------------------------------------|
A|--------------------------------------|------------------------------------------------|
E|0-0-0--0------------------------------|----0-0-0---0-0-0-----------0-0-0---0-0-0-------|
A|0-0-0--0------------------------------|----0-0-0---0-0-0-----------0-0-0---0-0-0-------|
  PM---| Let Ring                            PM---|  PM---|          PM---|  PM---|

e|--------------------------------------|------------------------------------------------|
B|--------------------------------------|------------------------------------------------|
G|--------------------------------------|------------------------------------------------|
D|--------------------------------------|------------------------------------------------|(x3)
A|--------------------------------------|x\----------------------------------------------|
E|0-------0-0-0--0-0-0--0---------------|x\----------0-0-0--0-0-0----------------0-------|
A|0-------0-0-0--0-0-0--0---------------|x\----------0-0-0--0-0-0----------------0-------|
  PM      PM-------------|                           PM----------|               PM

e|--------------------------------------|------------------------------------------------|
B|--------------------------------------|------------------------------------------------|
G|--------------------------------------|------------------------------------------------|
D|--------------------------------------|------------------------------------------------|
A|--------------------------------------|------------------------------------------------|
E|0-0-0--0------------------------------|----0-0-0---0-0-0-----------0-0-0---0-0-0-------|
A|0-0-0--0------------------------------|----0-0-0---0-0-0-----------0-0-0---0-0-0-------|
  PM------|                                  PM-----------|          PM-----------|

e|--------------------------------------|------------------------------------------------|
B|--------------------------------------|------------------------------------------------|
G|--------------------------------------|------------------------------------------------|
D|--------------------------------------|------------------------------------------------|
A|--------------------------------------|------------------------------------------------|
E|0-------0-0-0--0-0-0--0---------------|------------0-0-0--0-0-0----------------0-------|
A|0-------0-0-0--0-0-0--0---------------|------------0-0-0--0-0-0----------------0-------|
  PM      PM-------------|                           PM----------|               PM

****************************************

| PM  Palm Mute
| ~   Vibrato
| x   dead note
| /   slide up
| \   slide down
| h   hammer-on
| p   pull-off

*****************************************
Suggest correction
Creating personal tab
Creating personal tab
You can edit any tab online and save it as your Personal.

You can edit, replace or remove any tab part or add personal notes – all changes will be seen only by you.

Personal tabs can be accessed anytime from any device, even offline.
Learn more »
Give kudos to tab author, rate the tab!
1 2 3 4 5
comments
print report bad tab
1 comment total.
0 reply
LMBozovich 706 Jun 24, 2017 01:18 AM

Guys, gals, thanks for viewing this tab. Make sure to rate.

guest
You may want to rate the tab now too:
select rating
Wanna post a correction for this tab? Suggest correction