Oops, an error
Loading. Please wait.

Wither tab

97 views 6 this week
1 commentread comment
1 2 3 4 5
3 more votes to show rating
add to favorites
×
Save as Personal and add changes to this tab that will be seen only by you. Learn more ›
×
You can save this tab as Personal to edit and correct it or add notes. All changes will be seen only by you. Learn more »
launch autoscroll
font size
0
reset
how to read this tab
guitar tuner
edit
Autoscroll
slow
fast
+/-
esc
set tempo
stop
Author
Difficulty
About this tab version
This is Wither by Fit For An Autopsy. Several time changes, with emphasis on dark tone, and lots of tasty distortion. This version is based off the cover performed by Nick Broomhall (who used an 8-string instead of a 7-string). Was this info helpful? Yes No
Tuning (7-String Drop G)

[Intro]
(Guitar 1 and 2)
d|--------------------------------|
A|--------------------------------|
F|--------------------------------|
C|--------------------------------|
G|--------------------------------|
D|----------------0---------------|
G|----------------0---------------|
                  PM

[Verse Part 1]
(Guitar 1 and 2)
d|------------------------------------------------|-------------------------------------------------|
A|------------------------------------------------|------------------------------------------11-----|
F|------------------------------------------------|------------------------------------------14-----|
C|------------------------------------------------|-------------------------------------------------|
G|------------------------------------------------|-------------------------------------------------|
D|0-0-0-0-0-0-0-----------0-0-0-0-0-0-0-0-0-0-0-0-|0-----------0-0-0-0-----0--0--0-----0------------|
G|0-0-0-0-0-0-0-----------0-0-0-0-0-0-0-0-0-0-0-0-|0-----------0-0-0-0-----0--0--0-----0------------|
  PM-----------|          PM---------------------| PM|         PM-----|    PM-----|    PM

d|-------------------------------------------------|------------------------------------------------|
A|10-----------------------------------------------|------------------------------------------------|
F|13-----------------------------------------------|------------------------------------------------|
C|-------------------------------------------------|------------------------------------------------|(x2)
G|-------------------------------------------------|------------------------------------------------|
D|-------0-0-0-0-0-0-0-----------0-0-0-0-0-0-0-0-0-|0-0-0-0-----------0-0-0-0-----0--0--0--0--0-----|
G|-------0-0-0-0-0-0-0-----------0-0-0-0-0-0-0-0-0-|0-0-0-0-----------0-0-0-0-----0--0--0--0--0-----|
         PM-----------|          PM---------------| PM-----|          PM-----|    PM-----------|

[Verse Part 2]
(Guitar 1 and 2)
d|-----------------------------------------------------|--------------------------------------------|
A|-----------------------------------------------------|-------------------------------------11-----|
F|-----------------------------------------------------|-------------------------------------14-----|
C|-----------------------------------------------------|--------------------------------------------|
G|----------9---8---------6-10-13------13---12---------|------9---8---------------------------------|
D|0-0-0-0---6---5-----6-9---------10-0-10---9----0-0-0-|0-----6---5-----0-0-0-0---0-----------------|
G|0-0-0-0-----------7----------------------------0-0-0-|0---------------0-0-0-0---0-----------------|
  PM------|                                       PM--| PM              PM---------|

d|-------------------------------------------------|------------------------------------------------|
A|10-----------------------------------------------|-------------------------------------10---------|
F|13-----------------------------------------------|---------------------------------8-8------------|
C|-------------------------------------------------|---------------------------10-10----------------|(x2)
G|-----------------9---8---------------------------|------6-10-13------8-11-11----------------------|
D|---------0---0---6---5---------------------------|--6-9---------10-0----------------------0---0---|
G|---------0---0-----------0-0-1-1-2-2-0-0-1-1-0-0-|7---------------------------------------0---0---|
           PM---|          PM---------|    PM-|                                             PM---|

[Break]
(Guitar 1)
d|------------------------|
A|------------------------|
F|------------------------|
C|------------------------|
G|------------------------|
D|------------------------|
G|0-0-1-1-2-2-0-0-1-1-0-0-|
  PM---------|    PM-|

[Interlude]
(Guitar 1 and 2)
d|------------------------|------------------------|------------------------|------------------------|
A|------------------------|------------------------|------------------------|------------------------|
F|------------------------|------------------------|------------------------|------------------------|
C|------------------------|------------------------|------------------------|------------------------|(x2)
G|------------------------|------------------------|------------------------|--------7/8\7-----------|
D|------------------------|------------------------|------------------------|--------5/6\5p0-----1---|
G|0-0-1-1-2-2-0-0-1-1-0-0-|1-1-3-3-4-4-1-1-4-4-1-1-|0-0-1-1-2-2-0-0-1-1-0-0-|5-5-5-5---------5p0-1---|
  PM---------|    PM-|     PM---------|    PM-|     PM---------|    PM-|

[Pre-Hook]
(Guitar 1)
d|----------------------|
A|----------------------|
F|----------------------|
C|----------------------|
G|----------------------|
D|--------0-0-0-0-0-----|
G|--------0-0-0-0-1-----|
          PM-------|

[Hook]
(Guitar 1) (Guitar 2 comes in on 2nd time)
  N.H.            N.H.
d|x-----------------------------------|--------------------------------------------|
A|-x----------------------------------|--------------------------------------------|
F|--x---------------------------------|--------------------------------------------|
C|---x------------4-4-4-4-------------|--------------------------------------------|
G|----x-------------------------------|--------------------------------------------|
D|-----x--------------------------0---|0---4\3-3\2-0---0---4\3-3/6-6\5-5\4-4\3-3\2-|
G|------x-0-0-0-0-----------------0---|0---4\3-3\2-0---0---4\3-3/6-6\5-5\4-4\3-3\2-|

  N.H.            N.H.
d|x-----------------------------------|--------------------------------------------|
A|-x----------------------------------|--------------------------------------------|
F|--x---------------------------------|--------------------------------------------|
C|---x------------4-4-4-4-------------|--------------------------------------------|(x3)
G|----x-------------------------------|--------------------------------------------|
D|-----x--------------------------0---|0---4\3-3\2-0---0---4\3-3/7-7\6-6\5-5\4-4\3-|
G|------x-0-0-0-0-----------------0---|0---4\3-3\2-0---0---4\3-3/7-7\6-6\5-5\4-4\3-|

[Outro Part 1]
(Guitar 1)
d|------------------------------------------------|------------------------------------------------|
A|------------------------------------------------|------------------------------------------------|
F|17-17-17-17-17-17-17-17-17-17-17-17-17-17-17-17-|17-17-17-17-17-17-17-17-17-17-17-17-17-17-17-17-|
C|------------------------------------------------|------------------------------------------------|
G|------------------------------------------------|------------------------------------------------|
D|------------------------------------------------|------------------------------------------------|
G|------------------------------------------------|------------------------------------------------|

d|------------------------------------------------|------------------------------------------------|
A|------------------------------------------------|------------------------------------------------|
F|17-17-17-17-17-17-17-17-17-17-17-17-17-17-17-17-|16-16-16-16-16-16-16-16-16-16-16-16-16-16-16-16-|
C|------------------------------------------------|------------------------------------------------|
G|------------------------------------------------|------------------------------------------------|
D|------------------------------------------------|------------------------------------------------|
G|------------------------------------------------|------------------------------------------------|

d|------------------------------------------------|------------------------------------------------|
A|------------------------------------------------|------------------------------------------------|
F|16-16-16-16-16-16-16-16-16-16-16-16-16-16-16-16-|14-14-14-14-14-14-14-14b15-15-15-15-15-15-15-15-|
C|------------------------------------------------|------------------------------------------------|
G|------------------------------------------------|------------------------------------------------|
D|------------------------------------------------|------------------------------------------------|
G|------------------------------------------------|------------------------------------------------|
                                                   Gradually bend up

d|------------------------|------------------------|
A|------------------------|------------------------|
F|15-15-15-15-15-15-15-15-|15-15-15-15-15-15r14-14-|
C|------------------------|------------------------|(x4)
G|------------------------|------------------------|
D|------------------------|------------------------|
G|------------------------|------------------------|
  Gradually bend down

(Guitar 2)
d|----------------|----------------|----------------|----------------|---------------|-----------------------|
A|----------------|----------------|----------------|----------------|---------------|-----------------------|
F|----------------|----------------|----------------|----------------|---------------|-----------------------|
C|----------------|----------------|----------------|----------------|---------------|-----------------------|
G|----------------|----------------|----------------|----------------|7--------------|-----------------------|
D|----------------|----------------|----------------|----------------|5--------------|5-----3-----1----0-----|
G|12--------------|8---------------|8-----7-----8---|5---------------|5--------------|5-----3-----1----0-----|

d|------------------------|----------------|----------------|----------------|----------------|----------|
A|------------------------|----------------|----------------|----------------|----------------|----------|
F|------------------------|----------------|----------------|----------------|----------------|----------|
C|------------------------|----------------|----------------|----------------|----------------|----------|(x2)
G|------------------------|----------------|----------------|----------------|7-7-7-7-7-7-7-7-|----------|
D|------------------------|----------------|----------------|--------5-5-5-5-|5-5-5-5-5-5-5-5-|5--3--1-0-|
G|12-12-12-12-12-12-12-12-|8-8-8-8-8-8-8-8-|8-8-8-7-7-7-8-8-|5-5-5-5-5-5-5-5-|5-5-5-5-5-5-5-5-|5--3--1-0-|


*******************************************

| b    bend
| r    release
| /    slide up
| \    slide down
| p    pull-off
| PM   palm mute
| N.H. Natural Harmonic

*******************************************

            
            
Suggest correction
Creating personal tab
Creating personal tab
You can edit any tab online and save it as your Personal.

You can edit, replace or remove any tab part or add personal notes – all changes will be seen only by you.

Personal tabs can be accessed anytime from any device, even offline.
Learn more »
Give kudos to tab author, rate the tab!
1 2 3 4 5
comments
print report bad tab
1 comment total.
0 reply
LMBozovich 936 Jun 24, 2017 01:14 AM

Guys, gals, thanks for viewing this tab. Make sure to rate.

guest
You may want to rate the tab now too:
select rating
Wanna post a correction for this tab? Suggest correction