Oops, an error
Loading. Please wait.

Reason Tab

1,641 views 6 this week
no commentswrite comment
1 2 3 4 5
x 3
add to favorites
launch autoscroll
font size
0
reset
how to read this tab
guitar tuner
Autoscroll
slow
fast
+/-
esc
set tempo
stop
Help us to improve Ultimate-Guitar.com Take our survey!
×
Author
Difficulty
Tuning
novice
C G C F A D
-------------------------------------------------------------------------------
                             Reason - Fit for Rivals
-------------------------------------------------------------------------------
Tabbed by: Wuai Bel Ree
Email: wuaibelree@gmail.com

Tuning: Drop C

Guaranteed to have some inaccuracies, as I was too lazy to investigate further once I 
suspected that something needed to be fixed.

If you want a tab for the other guitar, it's pretty much this except it uses the power 
chord that skips the 4th string more. You know, the one with the x in the middle. 
Pretty easy to tell where.

D|-------------------------------------------------------------------------|
A|-------------------------------------------------------------------------|
F|-------------------------------------------------------------------------|
C|-------------------------------------------7771010105559779755-----------|
G|--555888333753753355588833310101010101010105558-8-8-3337557533-----------|
C|-------------------------------------------------------------------------|

|-------------------------------------------------------------------------|
|-------------------------------------------------------------------------|
|-------------------------------------------------------------------------|
|-7771010105559-9-9-9-9-9--77710101055597797557771010105551212121212121212|
|-5558-8-8-3337-7-7-7-7-7--5558-8-8-33375575335558-8-8-3331010101010101010|
|-------------------------------------------------------------------------|

|-----------------------------------------------------------------------X2|
|-------------------------------------------------------------------------|
|-------------------------------------------------------------------------|
|-----------------------------------------2222222255555555----------------|
|-----------------------------------------2222222255555555----------------|
|-12--3--10--3-12--3--10--3-12--3--10--3--2222222255555555----------------|

|-------------------------------------------------------------------------|
|-------------------------------------------------------------------------|
|-------------------------------------------------------------------------|
|-7777777777777777101010101010101010101010101010105555555555555555--------|
|-55555555555555558-8-8-8-8-8-8-8-8-8-8-8-8-8-8-8-3333333333333333--------|
|-------------------------------------------------------------------------|

|-------------||--------------------------------------------------------X2|
|-------------||----------------------------------------------------------|
|-------------||----------------------------------------------------------|
|-555555555555||----------------------------------------2222222255555555--|
|-555555555555||----------------------------------------2222222255555555--|
|-555555555555||12--3--10--3-12--3--10--3-12--3--10--3--2222222255555555--|

|-------------------------------------------------------------------------|
|-------------------------------------------------------------------------|
|-------------------------------------------------------------------------|
|-7777777777777777101010101010101010101010101010105555555555555555--------|
|-55555555555555558-8-8-8-8-8-8-8-8-8-8-8-8-8-8-8-3333333333333333--------|
|-------------------------------------------------------------------------|

|-------------------------------------------------------------------------|
|-------------------------------------------------------------------------|
|-------------------------------------------------------------------------|
|-55555555-55-5-3-777777777777777710101010101010101010101010101010--------|
|-55555555-55-5-3-55555555555555558-8-8-8-8-8-8-8-8-8-8-8-8-8-8-8---------|
|-55555555-55-5-3---------------------------------------------------------|

|-----------------------------|-------------------------------------------|
|-----------------------------|-------------------------------------------|
|-----------------------------|1414141477771414141414141414121214141414---|
|-5555555555555555555555555555|x-x-x-x-xxxxx-x-x-x-x-x-x-x-x-x-x-x-x-x----|
|-3333333333333333555555555555|1212121255551212121212121212101012121212---|
|-----------------555555555555|-------------------------------------------|

Might need to switch the quick "in between" 10x12 pairs with 13x15 pairs. I can't exactly tell.

|-----------------------------------------------------------------------X2|
|-------------------------------------------------------------------------|
|-7777141414141414101012121212101010109999777712121212101010101414-14-12--|
|-xxxxx-x-x-x-x-x-x-x-x-x-x-x-x-x-x-x-xxxxxxxxx-x-x-x-x-x-x-x-x-x--x--x---|
|-55551212121212128-8-101010108-8-8-8-77775555101010108-8-8-8-1212-12-10--|
|-------------------------------------------------------------------------|

|-------------------------------------------------------------------------|
|-------------------------------------------------------------------------|
|-------------------------------------------------------------------------|
|-------------------------------------------------------------------------|
|-55588833375375335558883331010101010101010-------------------------------|
|-------------------------------------------------------------------------|

|-------------------------------------------------------------------------|
|-------------------------------------------------------------------------|
|-------------------------------------------------------------------------|
|-7777777777777777101010101010101010101010101010105555555555555555--------|
|-55555555555555558-8-8-8-8-8-8-8-8-8-8-8-8-8-8-8-3333333333333333--------|
|-------------------------------------------------------------------------|

|-------------------------------------------------------------------------|
|-------------------------------------------------------------------------|
|-------------------------------------------------------------------------|
|-55555555-55-5-3-777777777777777710101010101010101010101010101010--------|
|-55555555-55-5-3-55555555555555558-8-8-8-8-8-8-8-8-8-8-8-8-8-8-8---------|
|-55555555-55-5-3---------------------------------------------------------|

|-----------------------------|-------------------------------------------|
|-----------------------------|-------------------------------------------|
|-----------------------------|-------------------------------------------|
|-5555555555555555555555555555|7-7-7-7-7-7-7-7777-10-10-10-10-10-10-10----|
|-3333333333333333555555555555|5-5-5-5-5-5-5-5555-8--8--8--8--8--8--8-----|
|-----------------555555555555|-------------------------------------------|

|------------------------------------------------X2-----------------------|
|-------------------------------------------------------------------------|
|-------------------------------------------------------------------------|
|-10101010-5-5-5-5-5-5-5-5555-5-5-5-5-5-5-5-3-----------------------------|
|-8-8-8-8--3-3-3-3-3-3-3-3333-5-5-5-5-5-5-5-3-----2nd time ends-----------|
|-----------------------------5-5-5-5-5-5-5-3-----without the 3 bar chord-|

|-------------------------------------------------------------------------|
|-------------------------------------------------------------------------|
|-------------------------------------------------------------------------|
|--------------------77-1010-55-------------------------------------------|
|--5558883337537533--55-8-8--35-------------------------------------------|
|-------------------------------------------------------------------------|

Seriously, I'm not a very good tabber, guys. Don't make me be the sole tabber for this 
band on the entire Internet. (AND I'M TALKING ABOUT MORE THAN JUST "CRASH".)
Suggest correction
Give kudos to tab author, rate the tab!
1 2 3 4 5
comments
print report bad tab
guest
You may want to rate the tab now too:
select rating
Wanna post a correction for this tab? Suggest correction