Oops, an error
Loading. Please wait.

Mido Tab

195 views 1 this week
no commentswrite comment
1 2 3 4 5
please rate
add to favorites
launch autoscroll
font size
0
reset
how to read this tab
guitar tuner
Tab Pro tools
  • play this tab
  • loop segment
  • change instrument
  • show fretboard
  • metronome
×
Best way to learn
"Mido"
Autoscroll
slow
fast
+/-
esc
set tempo
stop
Contributor
-----------------------------------------------------------------------------
                             Miúdo - Fitacola
-----------------------------------------------------------------------------
Tabbed by:Cábál
Email:cabal_almeida@hotmail.com

Tuning:eBGDAE


D   D   (2x)

D   A   B   G  (2x)

D                                     A
   Encontramos sempre alguém, que nos manda descansar e parar, 
B                             G
Já não sou um miúdo, tenho ideias e merdas pensadas.
D                                 A                                 B
Estou farto de querer esquecer, o facto de dizeres que me estou a perder, 
                   G
Que me estou a perder!


e|---------------------------|
B|-8p7-----8p7-----8p7-----8-|
G|-----9p7-----9p7-----9p7---|
D|---------------------------|
A|---------------------------|
E|---------------------------|


D    A                  B   G                    D      A...
        Já não sou um miúdo!!    Já não sou um miúdo!!
A              B     G
Já não sou um miúdo!!    Já não sou um miúdo!!


e|----------------------------------------|
B|----------------------------------------|
G|-7--------9--------11----------12-11-9--|
D|---7----7---7----7----12----12----------|
A|----------------------------------------|
E|----------------------------------------|


D                            A  
Condescendência militarismo, dar a volta ao mecanismo, 
B                                   G
  não faças de mim parvo, O que mais detesto é cinismo
D                                   A  
Quando me tento libertar, será que dá para ir? 
B                            G
  Sai da minha frente vou voltar... 
                 D...
Voltar a repetir!


D    A                  B   G                    D      A
        Já não sou um miúdo!!    Já não sou um miúdo!!
A              B     G
Já não sou um miúdo!!    Já não sou um miúdo!!


e|---------------------------7-7-7-7h10-10-10-9-7----7--------|
B|-7-7h8-10-8p7-7-7h8-10-8p7----------------------10---10-7---|
G|------------------------------------------------------------|
D|------------------------------------------------------------|
A|------------------------------------------------------------|
E|------------------------------------------------------------|

e|--------------------------10-10-10-10-7-7-7-7------------7----------------|
B|7-7-8-10-8-7-7-7-8-10-8-7---------------------10-8-8-8-7-7-8-7------------|
G|--------------------------------------------------------------7--9--11--12|
D|--------------------------------------------------------------------------|
A|--------------------------------------------------------------------------|
E|--------------------------------------------------------------------------|


(D)                                   (A)  
Quando me tento libertar, será que dá para ir? 
(B)                            (G)
  Sai da minha frente vou voltar... 
                 D...
Voltar a repetir!


D    A                  B   G                    D      A...
        Já não sou um miúdo!!    Já não sou um miúdo!!
A              B     G
Já não sou um miúdo!!    Já não sou um miúdo!!

D   D   (2x)


************************************

| /   slide up
| \   slide down
| h   hammer-on
| p   pull-off

************************************
Music:
www.myspace.com/fitacola
facebook.com/fitacolarock
************************************
FITACOLA TV:
www.youtube.com/fitacolatv

************************************
Information:   
fitacolabooking@gmail.com
fitacola@gmail.com
facebook.com/fitacolarock

comments
We did not receive enough feedback on this tab! Please rate:
print report bad tab
1 2 3 4 5
I want to post or [tab]
guest
You may want to rate the tab now too:
select rating
Please do not post tabs as comments. Select "correction" instead!