Oops, an error
Loading. Please wait.

Donde Todo Empieza tab

version 4
version 4

Whole song

68 views 1 this week
no commentswrite comment
1 2 3 4 5
3 more votes to show rating
add to favorites
×
Save as Personal and add changes to this tab that will be seen only by you. Learn more ›
×
You can save this tab as Personal to edit and correct it or add notes. All changes will be seen only by you. Learn more »
launch autoscroll
font size
0
reset
how to read this tab
guitar tuner
edit
Autoscroll
slow
fast
+/-
esc
set tempo
stop
Aquí cuelgo mi primera tablatura que espero que no tenga ningún error,
he intentado que sea lo más calcada a la original.
Nunca pensé que llegaría a colgar tablaturas pero con mucho esfuerzo
y dedicación puedes llegar lejos tocando la guitarra, y sino mirad a Fito,
un artista increíble y mejor compositor todavía. A él quiero agradecerle
que con su música me ha ayudado a pasar momentos muy difíciles.

Me gustaría dedicar esta canción a dos personas
que han sido muy importantes en mi vida y
sobretodo a una de ellas que está sufriendo mucho
en estos momentos?los nombres quedan para mí

 ?nunca pensé que mucho fuera tanto?


Intro:
            F  Eb           A#           F
E-------------|----------------|------------------------|
B-------------|-------------3--|------------------------|
G--10-7-5-4-5-|--10-7-5-4-5----|-----7--9-7-5---2-3-----|
D-------------|----------------|----7---------------5--3|
A-8-----------|-8--------------|--5---------------------|
E-------------|----------------|------------------------|
            F  Eb           A#           F
E-------------|----------------|------------------------|
B-------------|-------------3--|---------------6-3h4----|
G--10-7-5-4-5-|--10-7-5-4-5----|-----7--9-7-5-----------|
D-------------|----------------|----7----------------5-3|
A-8-----------|-8--------------|--5---------------------|
E-------------|----------------|------------------------|

A#                 F
Puede que no valga la pena escribir
Eb                    A#
 tan lejos de la poesía
          A#            F
todas las palabras que te quiero decir
Eb        A#
  se me rompen enseguida
         Gm           F                    Eb
No me quedan flores, me arrancaron la raiz
            A#
Se pisaron las semillas
          A#            F        Eb
Me di cuenta tarde que te perdí
                 A#
por pensar que te tenía...

            F  Eb           A#           F
E-------------|----------------|---------------------------|
B-------------|-------------3--|------------------------4-3|
G--10-7-5-4-5-|--10-7-5-4-5----|-----7--9-7-5---5h7-5------|
D-------------|----------------|----7-----------------8----|
A-8-----------|-8--------------|--5------------------------|
E-------------|----------------|---------------------------|


A#                   F
Creo que los bares se deben abrir
Eb                   A#
  para cerrar las heridas
             A#         F             Eb
y todas las noches, me acuerdo de ti
         A#
y te olvido cada día
Gm                   F
Y vuelvo a ser un loco
               Eb          A#
para sobrevivir, a la locura de la vida
A#                    F                   Eb
Muchas veces la cabeza, y a menudo la nariz
              A#
Y una voz que me decía

          Gm
Déjate llevar
F             Eb
 Si el alma te lleva
Eb             A#
 Duele el corazón
A#             F
 Cuando te lo dejas
           Gm
Cerca del final
   Eb         A#   A#
Donde todo empieza

SAXO (SE ACOMPAÑA CON ESTAS NOTAS F-Eb-A#-F-)


SOLO GUITARRA ( INCREIBLE):
               Eb                             A#
E---------------------------------|-----------------------|
B--13h15-13-----------------------|--13h15-13-------------|
G-----------15-12--12-12-15-------|----------15---15------|
D---------------------------------|------------15---13-12-|
A---------------------------------|-----------------------|
E---------------------------------|-----------------------|
            F                   Gm
E---------------------------------------------------------|
B-------------13------------------------------------------|
G-----12-13-14---14-13-12----12h14-14--15-15-15--15-15-15-|
D--15--------------------15-------------------------------|
A---------------------------------------------------------|
E---------------------------------------------------------|
               Eb                             A#
E---------------------------------|-----------------------|
B--13h15-13-----------------------|--13h15-13-------------|
G-----------15-12--12-12-15-------|----------15---15------|
D---------------------------------|------------15---13-12-|
A---------------------------------|-----------------------|
E---------------------------------|-----------------------|
            F                   Gm
E---------------------------------------------------------|
B---------------------------------------------------------|
G-----12-13-14---14-13-12---------------------------------|
D--15--------------------15---------10h12--10----8-8-8-8--|
A---------------------------------------------------------|
E---------------------------------------------------------|


                  F
Donde todo empiezaaaaa
                    Gm
Donde todo todo empieza
                  F
Donde todo empiezaaaaa
                    Gm
Donde todo todo empieza
                  F
Donde todo empiezaaaaa
                              Gm
No me sale bien la cuenta de la vida
                  F
Donde todo empiezaaaaa
                              Gm
O me sobran noches o me faltan dias
                  F
Donde todo empiezaaaaa
                                 Gm
Todos los minutos que no he estao contigo
                  F
Donde todo empiezaaaaa
                               Gm
Ahora son demonios que viven conmigo
                  F
Donde todo empiezaaaaa
                               Gm
Puedes encontrarme cerca del final
                  F
Donde todo empiezaaaaa
                                Gm
Por que todo empieza cerca del final
                  F
Donde todo empiezaaaaa
                               Gm
Puedes encontrarme cerca del final
                  F
Donde todo empiezaaaaa
                                Gm       F
Por que todo empieza cerca del final...
                                  Gm
Por que todo empieza cerca del final.......

F-Gm?????

            
            
Suggest correction
Creating personal tab
Creating personal tab
You can edit any tab online and save it as your Personal.

You can edit, replace or remove any tab part or add personal notes – all changes will be seen only by you.

Personal tabs can be accessed anytime from any device, even offline.
Learn more »
Give kudos to tab author, rate the tab!
1 2 3 4 5
comments
print report bad tab
guest
Wanna post a correction for this tab? Suggest correction