Oops, an error
Loading. Please wait.

Que Divertido! bass

version 1
version 1

Whole song

34 views 1 this week
no commentswrite comment
1 2 3 4 5
3 more votes to show rating
add to favorites
×
Save as Personal and add changes to this tab that will be seen only by you. Learn more ›
×
You can save this tab as Personal to edit and correct it or add notes. All changes will be seen only by you. Learn more »
launch autoscroll
font size
0
reset
guitar tuner
edit
Autoscroll
slow
fast
+/-
esc
set tempo
stop
VERSO (Ésta, va a ser la estructura basica de la canción)


G ------------------------------------------------------
D ------4--5-6-7-----4--5-6-7---------------------------
A --5------------5----------------2--3-4-5-----2--3-4-5-  X2
E ----------------------------3------------3------------


G -----------------------------------------------------
D ------2--3-4-5-----2--3-4-5--------------------------
A --3------------3----------------2--3-4-5-----2--3-4-5
E ----------------------------3------------3-----------


G ------9-----------7------------------------
D -----9--9--------7--7----------------------
A --7------7-----5------5--------2--3-4-5----
E ---------------------------3-----------3---


Ésto, se toca 4 veces(Una en la intro,otras dos cuando canta
y la cuarta vez lo hacemos acompañando
al punteillo de guitarra)

El Bajo se incorporará en el minuto 1:52 así:


 ..bobo, buscando la melodía.. 
G -----------------------------------------------------
D ------2--3-4-5-----2--3-4-5--------------------------
A --3------------3----------------2--3-4-5-----2--3-4-5
E ----------------------------3------------3-----------
                                                           X2

G ------9-----------7---------------------------------
D -----9--9--------7--7-------------------------------
A --7------7-----5------5--------2--3-4-5----2--3-4-5-
E ---------------------------3-----------3------------


Luego, en el minuto 2:17 no toca el Bajo y, vuelve a reincorporarse
en el minuto 2:32 así:


G -----------------------------------------------------
D ------2--3-4-5-----2--3-4-5--------------------------
A --3------------3----------------2--3-4-5-----2--3-4-5
E ----------------------------3------------3-----------
                                                           

G ------9-----------7-----------------------------------------------------
D -----9--9--------7--7---------------------------------------------------
A --7------7-----5------5--------2--3-4-5----2--3-4-5-----2--3-4-5--------
E ---------------------------3-----------3------------3------------3--333-


Pues aquí teneis la canció que os sea de gran ayuda y,si te teneis alguna 
duda, escribirme a mi correo

            
            
Suggest correction
Creating personal tab
Creating personal tab
You can edit any tab online and save it as your Personal.

You can edit, replace or remove any tab part or add personal notes – all changes will be seen only by you.

Personal tabs can be accessed anytime from any device, even offline.
Learn more »
Give kudos to tab author, rate the tab!
1 2 3 4 5
comments
print report bad tab
guest
Wanna post a correction for this tab? Suggest correction