Oops, an error
Loading. Please wait.

Soldadito Marinero tab

version 1
version 1

Whole song

21,916 views 78 this week
no commentswrite comment
1 2 3 4 5
x 5
add to favorites
×
Save as Personal and add changes to this tab that will be seen only by you. Learn more ›
×
You can save this tab as Personal to edit and correct it or add notes. All changes will be seen only by you. Learn more »
launch autoscroll
font size
0
reset
how to read this tab
guitar tuner
edit
Autoscroll
slow
fast
+/-
esc
set tempo
stop
Author
[Intro 1]

e|-------------3---------2---------2------------|
B|-------------3---------3---------3----------2-|
G|-------------0---------2---------2--------2-2-|
D|--2/4^2-0----0---------0---0h4---4---0h4-4--2-|
A|-------------2---0h2------------------------0-|
E|-------------3--------------------------------|

e|-------------3---------2---------2-------------------2-|
B|-------------3---------3---------3---------2---------3-|
G|-------------0---------2---------2---------2---------2-|
D|--2/4^2-0----0---------0---0h4---4---0h4---2--2br-0--0-|
A|-------------2---0h2-----------------------0-----------|
E|-------------3-----------------------------------------|

El ritmo del verso es el siguiente(lo he hecho como he podido aqui).
Se supone que son negras, corcheas y semicorcheas.
n=se toca hacia abajo  v=se toca hacia arriba  ()=no se toca.
n(vnv) n(v)n v
|      |   | |
|      |   | |    X2 Cada compás
|      |   | |
<      <   < <


A                    G                       D
Él camina despacito que las prisas no son buenas
Bm                   D                   A
En su brazo dobladita con cuidado la chaqueta
G                                             D
Luego pasa por las calles donde los chavales juegan
Bm                     A                     D
Él también quiso ser niño pero le pilló la guerra

        

                        ESTRIBILLO

e|n(vnv) n(v)n  v  (n)v(n)v  (n)v n v  |---------| 
B|      |---|--|   |-|-|-|   |-|-|-|  |----3----| 
G|      |   |--|   |-|-|-|   |-|-|-|  |----2----| 
D|      |   |  |   | | | |   | | | |  |---------| 
A|<      <   <  <   < < < <   < < < <  |---------|
E|                                     |---------|
                                        
e|----2----|
B|----3----|
G|----4----|
D|----4----|
A|----2----|
E|---------|
    B 

                   

G                                  D
Soldadito marinero conociste a una sirena
Bm                                              A
De esas que dicen “te quiero” si ven la cartera llena
G                                      D
Escogiste a la más guapa y a la menos buena
Bm                 A                        D
Sin saber como ha venido te ha cogido la tormenta



e|-------------3-------------2-------------2-----2-|
B|-------------3-------------3-------------3--2--3-|
G|-------------0---2/4^2-----2-------------2--2--2-|
D|--2/4^2-0----0---------4---4---2/4^2-0---0--2--0-|
A|-------------2------------------------------0----|
E|-------------3-----------------------------------|

A                   G                       D
Él quería cruzar los mares y olvidar a su sirena
Bm                   D                       A
La verdad no fue difícil cuando conoció a Mariola
G                                                 D
Que tenía los ojos verdes y un negocio entre las piernas
Bm                    A                       D
Hay que ver que puntería no te arrimas a una buena


                  ESTRIBILLO

Soldadito marinero conociste a una sirena
De esas que dicen “te quiero” si ven la cartera llena
Escogiste a la más guapa y a la menos buena
Sin saber como ha venido te ha cogido la tormenta


[Solo]

e|-----------------------------------------------------------/7-|
B|--10-----------------10b(12)-10~-------7----------------------|
G|---9b(11)r(9)-9-7-0-------------------7-7h9----6b(7)r(6)-4----|
D|----------------------------------7h9--------4----------------|
A|--------------------------------------------------------------|
E|--------------------------------------------------------------|

e|---------------------10-12-10-----------------------------------|
B|--7-7--10-9-8~---/12----------12-10-12-10~----------------------|
G|---------------------------------------------------9b(11)--9--7-|
D|---------------------------------------------7-9-7--------7--7--|
A|----------------------------------------------------------------|
E|----------------------------------------------------------------|


G                      D
Después de un invierno malo
              A
Una mala primavera
                     Bm
No sé por que estás buscando
                    G
Una lágrima en la arena(x 3)
                       D
Después de un invierno malo



e|---------14-12-----------14------|       
B|-----15--------------15----15----|       
G|---14--14----------14--14--------|    X2
D|--0---------------0--------------|       
A|---------------------------------|       
E|---------------------------------|



************************************

| h   Hammer-on
| br  Bend release
| /   Slide up
| ~   Vibrato

************************************
Suggest correction
Creating personal tab
Creating personal tab
You can edit any tab online and save it as your Personal.

You can edit, replace or remove any tab part or add personal notes – all changes will be seen only by you.

Personal tabs can be accessed anytime from any device, even offline.
Learn more »
comments
print report bad tab
guest
You may want to rate the tab now too:
select rating
Wanna post a correction for this tab? Suggest correction