Oops, an error
Loading. Please wait.

Trapos Sucios bass

version 1
version 1

Whole song

35 views 1 this week
no commentswrite comment
1 2 3 4 5
3 more votes to show rating
add to favorites
×
Save as Personal and add changes to this tab that will be seen only by you. Learn more ›
×
You can save this tab as Personal to edit and correct it or add notes. All changes will be seen only by you. Learn more »
launch autoscroll
font size
0
reset
guitar tuner
edit
Autoscroll
slow
fast
+/-
esc
set tempo
stop
Intro bajo:
G------------------
D------------------
A---1-0------------
E-0-----3-2--------

Ya con el punteo de guitarra y la letra va haciendo esto:

--------------------------------------------
--------------------------------------------
------3-0-3-2-0------------3-5-3-2-0--------
-0000-----------3-2--00000-----------3-2----

--------------------------------------------
--------------------------------------------
------3-0-3-2-0------------3-5-3-2-4-5-6----
-0000-----------3-2--00000------------------

Confunde el blanco con el negro...
--------------------------------------------
----2-5-2----2-5-2----2-5-2---2-5-2---------
--3-------23--------4-------4---------------
--------------------------------------------

Y su ambición  La esconde en un cajón
--------------------------------------------
--------------------------------------------
-0-2-2-2-----------2-----0------------------
-----------------0------------3--2--0-------

A partir de aqui se vuelve a repetir este esquema todo el rato
incluso en el solo de guitarra.

Después del parón el bajo va haciendo esto todo el rato:
---------------------
-2-2-2---------------
-------3-3-3-2-0-2---
---------------------

Excepto la segunda vez que hace un slide (arrastre):
-------------------------
-2-2-2-------------2s9---
-------3-3-3-2-0-2-------
-------------------------

Quiere subir muy deprisa...
------------------------------
-2-2-2------------------------
-------3-3-3-2-0-2------------
------------------------------


Confunde el blanco con el negro...
--------------------------------------------
----2-5-2----2-5-2----2-5-2---2-5-2---------
--3-------23--------4-------4---------------
--------------------------------------------

Y su ambición  La esconde en un cajón
--------------------------------------------
--------------------------------------------
-0-2-2-2-----------2-----0------------------
-----------------0------------3--2--0-------

            
            
Suggest correction
Creating personal tab
Creating personal tab
You can edit any tab online and save it as your Personal.

You can edit, replace or remove any tab part or add personal notes – all changes will be seen only by you.

Personal tabs can be accessed anytime from any device, even offline.
Learn more »
Give kudos to tab author, rate the tab!
1 2 3 4 5
comments
print report bad tab
guest
Wanna post a correction for this tab? Suggest correction