Oops, an error
Loading. Please wait.

Dos En La Ciudad Bass Tab

339 views 1 this week
no commentswrite comment
1 2 3 4 5
3 more votes to show rating
add to favorites
launch autoscroll
font size
0
reset
guitar tuner
Autoscroll
slow
fast
+/-
esc
set tempo
stop
Help us to improve Ultimate-Guitar.com Take our survey!
×
Author
[Intro]
G|---------------------------------------------------------|
D|---------------------5h7-5-7-----------------------------|
A|--17/5--5-----5-3--3---------5--5-----5-3-3-----------3--|
E|----------5-7---------------------5-7-------3-3-0-0-5----|
                                           Nos encontramos en la
G|-------------------------------------------------|
D|------------------5h7-5-7------------5h7-----7/--|
A|--5--5-----5-3--3---------5--5-----5-------5-----|
E|-------5-7---------------------5-7-------5-------|

    calle...
G|-----------------------------------------------------|
D|-----------------------------------------------------|
A|--------------------2--2-2--2------------------------|
E|--3--3-3--3-2--2-2------------5--5-5--5-3--3-3--3-5--|

G|-------------------------------------------------------------|
D|-------------------------------------------------------------|
A|------------------------------5-----------------2--2-2--2----|
E|--5-5--5-7--7-7--7-5--5-5-5h7---3--3-3--2--2-2------------5--|

G|--------------------------------------------------|
D|--------------------------------------------------|
A|----------5---------------------5--5-5--5-5-------|
E|--5-5-5h7---3--3-3--5--5-5--5h7--------------3-1--|

    Luego me abrió su boca...
G|----------------------------------------------------|
D|-----------------7h9-7---------------------------7--|
A|----------5-5--5-------5-7--7--------------5--/7----|
E|--0--5-5----------------------7-5--5h7p5-3----------|

G|------------------------------------------|
D|---------5--------------------------------|
A|-----3h5--------------2--2-2--7------7----|
E|--3--------3--2--2-2-------------5h7---0--|

    El tiempo pasó...
G|-------------------------------|
D|-------------------------------|
A|-------------------------------|
E|--3-2-0-2-3-2-0-2-3-2-0-5-5h7--|

                                             Me preguntó cómo había
G|-------------------------------------------------|
D|------------------5h7-5-7------------7/9-7-------|
A|--5--5-----5-3--3---------5--5-----5-------------|
E|-------5-7---------------------5h7---------5--4--|

    sido...
G|----------------------------------------------------------------------|
D|----------------------------------------------------------------------|
A|------------------1-2--2-2--2h4------------5--------------------------|
E|--3--3-3--2--2-2----------------5--5-5-5h7---3--3-3--3-5--3h5-5--5-7--|

G|--------------------------------------------------|
D|--------------------------------------------------|
A|----------------------5----------------------4----|
E|--7-7--7h9-5--5-5-5h7---3--0-3-3--2--2-2-2h4---7--|

G|-------------------------------------------------------|
D|------9------------------------------------------------|
A|--7h9----------------------------------5--5-5------5/--|
E|--------7--5--5-5--3--3-3--5--5-5--5h7---------5h7-----|

    Pasó, pasó...
G|---------------------------------------------------------------|
D|---------------------------------------------------------------|
A|---------------7----------------5------5-------5---------------|
E|--3-2-1-0--5h7---0--5--5-5--5h7----5h7---5-5h7---7|---3-2-1-0--|

G|------------------------------------------------------------------|
D|----------------------------7h9-7---------------------------------|
A|------7------------------5-------------5|---------------7---------|
E|--5h7---7-0--5--5-5--5h7-----------5h7-----3-2-1-0--5h7---0--0-5--|

G|----------------------------------------------------------------|
D|----------------------------------------------------------------|
A|---------5--5---5-4------------------7------------------3-------|
E|--5-5--5------5-----7|--3-2-1-0--5h7---0--0-5--5-5--6-5---6--5--|

   [solo guitarra]
G|------------------------------------------------------------|
D|------------------------------------------------------------|
A|--------------------2----2-2--------------------------------|
E|--3--3-3--3-2--2-2-----2------5--5-5--3--3-3--2h3-3-5--5-5--|

G|--------------------------------------------------------|
D|-------5h7----------------------------------------------|
A|-------------------------------5-------------------1-2--|
E|--5-7------7-7--7-5--5-5-5-5h7---3--0-3-3--2--2-2-------|

G|------------------------------------------------------------------|
D|------------------------------------------------------------------|
A|--2-2--2------------5-----------------------5----5--------5-------|
E|---------5--5-5-5h7---3--3-3--3-5--5-5--5h7----5---5--5h7----3-1--|

    Todo el fin de semana...
G|---------------------------------------------------------------|
D|---------------------7-----------------------------------------|
A|--------------5--5h7-----7----------5--5-5---------------------|
E|--0--5--3h5-0----------7---5--0--5----------3--3-3--2--2-2--2--|

G|---------------------------|
D|-----7h9-------------------|
A|-----------------7----7----|
E|--7------7-7--7-----7---0--|

    El tiempo pasó...
G|------------------------------------------------|
D|------------------------------------------------|
A|------------------------------5----5-5------5|--|
E|--3-2-0-2-3-2-0-2-3-2-0-5-5h7----5------5h7-----|

    Pasó, pasó...
G|---------------------------------------------------------------------|
D|---------------------------------------------------------------------|
A|---------------7------------------5----5---5-4------------------7----|
E|--3-2-1-0--5h7---0--5--0-5-5--5h7----5---5-----7|--3-2-1-0--5h7---0--|

G|------------------------------------------------------------------14-13/-|
D|------------------------7h9/12-12p11h12-12/14p12-9|-----------/14--------|
A|---------------------5---------------------------------------------------|
E|-0h2-5--0h2-5-5--5h7---------------------------------3-2-1-0-------------|

G|-------------------------------------------------------------------------|
D|-------------------------------------------------------------------------|
A|--------------------5------5---5-4------------------7--------------------|
E|--0-5--0h2-5-5--5h7----5h7---5-----7|--3-2-1-0--5h7---0--0h2-5--0h2-5-5--|

G|----------------------------|
D|----------------------------|
A|------------3--3-------12|--|
E|--6--6-5--5------6--5-------|

[final]          dos en la ciudad... etc.
G|-------------------------------------------------------------------|
D|------------------5/7-5-7------------------------------------------|
A|--5--5-----5-3--3---------5--5-----5-3-3-----------3-5--5-----5-3--|
E|-------5-7---------------------5-7-------3-3-0-0-5--------5-7------|

G|------------------------------------------------------------|
D|----5/7-5-7-------------------------------------------------|
A|--3----------5--5-----5-3--3--------------3-3-5--5-----5-3--|
E|------------------5-7--------3-0--0-3-3-3----------5-7------|

G|-------------------------------------------------------------------|
D|----5/7-5-7---------------------------------------------5/7-5-7----|
A|--3---------5--5-----5-3--3---------3-3-5--5-----5-3--3---------5--|
E|-----------------5-7--------3-0-3-3----------5-7-------------------|

G|-------------------------------------------------------------------|
D|---------------------------------------------5/7-5-7---------------|
A|--5-----5-3--3-----------3-3-5--5-----5-3--3---------5--5-----5-3--|
E|----5-7--------3-0-0-3-3----------5-7---------------------5-7------|

G|------------------------------------------------------------------------|
D|--------------------------------5/7-5-7---------------------------------|
A|--------------3-5--5-----5-3--3---------5--5-----2-3--3-------------5~--|
E|--0-0-1-1-3-3--------5-7---------------------3-5--------3-3-0-0-5-5-----|

Suggest correction
Give kudos to tab author, rate the tab!
1 2 3 4 5
comments
print report bad tab
guest
You may want to rate the tab now too:
select rating
Wanna post a correction for this tab? Suggest correction