Oops, an error
Loading. Please wait.

Las Nubes De Tu Pelo Chords

version 1
version 1

Whole song

Interactive

7,714 views 33 this week
2 commentsread comments
1 2 3 4 5
x 4
add to favorites
launch autoscroll
font size
0
reset
transpose
0
reset
simplify chords
display chords
guitar tuner
Autoscroll
slow
fast
+/-
esc
set tempo
stop
Help us to improve Ultimate-Guitar.com Take our survey!
×
Author
Difficulty
intermediate
Fito & Fitipaldis - Las nubes de tu pelo
AUTOR: Fito Cabrales
ALBUM: Lo mas lejos a tu lado (2003)
Transcripted by Julupanter (My first tab xD)

Introduction:
C  G   D  Em
C  Em  D  B7


Verse:
C                                       G
No hay mejor lugar, que entre las nubes de tu pelo,
D                  B7             Em
para revolver, las drogas con los versos,
C                 D                Em
lo mejor del Sol, el brillo de la Luna,
D                 
que es tu corazón.

C                                      G
En medio del mar, te sientes como en un desierto,
D                B7            Em
primavera ven, y cúrame el invierno,
C                D             Em
loco trovador, es tu canción desnuda,
D            
sólo corazón.


Chorus:
C                    D                   Em
Hoy me quedo en casa lo de fuera no me interesa,
C                          D               Em
ya saldré a dar una vuelta otro día que no llueva,
         C                     D                      Em         C
¿Cuántas flores para un ramo? ¿Cuántos versos para un poema?

PUNTEO:
     Mim              Re               Sol     (I need to add the final rythm)
E| --------------------------------------------------------|
B| ---0-3-0------------0---------1---0-------0-------------|
G| ---------2v---0---0---2-------------0-------0-----------|
D| ----------------2---------------------2-0---------------|
A| --------------------------------------------------------|
E| --------------------------------------------------------|

     Mim              Rem                     Sol
E| --------------------------------------------------|
B| ---0-3-0-----------0----------0-1-0-----------0---|
G| ---------2v--0---0---2------0-------2-0---------0-|
D| ---------------2----------2-------------2-0-2-----|
A| --------------------------------------------------|
E| --------------------------------------------------|

Chorus

Punteo

Chorus


         Enjoy. 
             Julupanter always at gmail.com
Suggest correction
comments
print report bad tab
2 comments total.
0 reply
Sarracallo 32 Dec 27, 2013 09:13 AM

Fito & Fitipaldis - Las nubes de tu pelo
AUTOR: Fito Cabrales
ALBUM: Lo mas lejos a tu lado (2003)

Introduction:
C G D B7 Em
C D Em G B7

Verse:
C G
No hay mejor lugar, que entre las nubes de tu pelo,
D B7 Em
para revolver, las drogas con los versos,
C D Em
lo mejor del Sol, el brillo de la Luna,
G B7
que es tu corazón.

C G
En medio del mar, te sientes como en un desierto,
D B7 Em
primavera ven, y cúrame el invierno,
C D Em
loco trovador, es tu canción desnuda,
G B7
sólo corazón.

Chorus:
C D Em
Hoy me quedo en casa lo de fuera no me interesa,
C B7 Em
ya saldré a dar una vuelta otro día que no llueva,
C B7 Em
¿Cuántas flores para un ramo? ¿Cuántos versos para un poema?

0 reply
piris_92 10 Oct 29, 2016 11:33 AM

El último acorde de la estrofa o verse es B7 y no D.
The las chord of the Verse is B7 instead of D.

Esta es la intro/This is the intro:

C G D
E|--------------------------------------------------------------|
B|--------------------------------------------------------------|
G|----------0------0--0---0------0--0-------------0-2-2-0-0-----|
D|--2-2-0-2---2-0-2-------------------0-4-0-4-4-0---0-0-----4-4-|
A|--3-3-3-3-3-3-------------0-----------------------------------|
E|-------------------3---3---3-3---3----------------------------|

Em C D Em
E|------------------------|-------------------------------------------|
B|------------------------|-------------------3-0---------------------|
G|---------------0--------|---------0-----2-2----------------0------0-|
D|--2-2-0-2-0-2----0-0-2-2|-2-2-0-2----0----------2-2-2-0-2----2-0-2--|
A|--2-2---2---2-----------|-3-3-3-3-3-------------2-2-----2--2-2------|
E|------------0-----------|-----------------------0-------------------|

G B7
E|------------------------------(2)-|
B|------------------------------(0)-|
G|----0---0----2---2-2-2-2-2-2--(2)-|
D|----0---0----1---1-1-1-1-1-1--(1)-|
A|-----------2---2-------2-2-2--(2)-|
E|--3--3-3--------------------------|

guest
You may want to rate the tab now too:
select rating
Wanna post a correction for this tab? Suggest correction