Oops, an error
Loading. Please wait.

Moneygrabber bass

version 2
version 2

Whole song

3,906 views 6 this week
no commentswrite comment
1 2 3 4 5
x 7
add to favorites
×
Save as Personal and add changes to this tab that will be seen only by you. Learn more ›
×
You can save this tab as Personal to edit and correct it or add notes. All changes will be seen only by you. Learn more »
launch autoscroll
font size
0
reset
guitar tuner
edit
Autoscroll
slow
fast
+/-
esc
set tempo
stop
Author
Fitz and the Tantrums - MoneyGrabber

Bass Tab by Seniortiempo87

Hey folks, this is a tab that I got from listening to the tune for a few hours...let's 
face it a lot of hours.
It's 90-100% accurate in my eyes.  Just listen to the track for rhythm because the 
measures and transcription is not to note.
Add fill patterns wherever you can, a lot of what he does is improvised with notes
I've given you. Pretty sure it is based around C major scale but fool around. Most 
importantly have fun!

Note: The 11 in the chorus is just 1 played fast twice.



0:08
Intro:
G|----|---------------------------------------------|
D|----|---------------------------------------------|
A|----|-8---10-12---10--8---10----7-7--7-77-5--3----|
E|--1/|------------------------------------------3-0|

Chorus 1:
G|---------------------------|------------------------------|
D|----------------7----------|------------------------------|
A|------------5h7---5h7p5----|--------------7 77-7-5--------|
E|1-1-11-3--5------------8-70|1-1-11--3-0----7------7---0---|

G|-------------------------|---------------------------|
D|-------------------------|---------------------------|
A|---------------5---------|-----------------7-7----7--|
E|1-1-11-3--5-55---7----0--|1--1--1-3--0----5----5h7---|

Verse:
G|--------------------------------------|---------------------------------------|
D|--------------------------------------|---------------------------------------|
A|8---10-12---10--8-8--10---7-7---7/10-9|8---10-8h10/12--10--8-8-10---77-7--10--|
E|---------------8--------7-----7-------|-------------------8-------7-----------|

Pre-Chorus:
G|--------------------------------------------------------------------|
D|----------------------5-5--55-5-------------------------------------|
A|---5----7----8-------------------7/(slide up and down)--------------|
E|------------7---8/10------------------------------------------------|

Chorus 2:
G|----------------------------|-----------------------------|
D|----------------------------|-----------------------------|
A|----------------------------|---------------5h7-7-7--5----|
E|1-1-11-3--5-5-03-5--3-3--0--|1--1--1-3--0--------------7-0|

G|---------------------------|-----------------------------------|
D|--------------------2-----2|3-3--------------------------------|
A|------------------5---5-2--|----x-2------7-7-----7-----7--5----|
E|1-1-11-3--5--5--3--------3-|-------3-0-------5h7---5h7------7--|


Verse x1
Pre-Chorus x1

Chorus 3:
G|--------------------------|------------------------------------------------|
D|--------------------------|------------------------------------------------|
A|----------------5h7-5-----|-----------7-----7------------------------------|
E|1-1-11-3--5--8--------8--0|1--1--1-3-----5h8--0-----5/\ (slide up and down)|

G|----------------------------|------------------------------------------------|
D|----------------------------|------------------------------------------------|
A|----------------------------|-----------7-----7------------------------------|
E|1-1-11-3-1-3-5-5--0-8-7-5--0|1--1--1-3-----5h8--0-----5/\ (slide up and down)|


Bridge:                 1          2             3
G|------------------|-----------------------------------|
D|------------------|-----------------------------------|
A|----3-3---5--5/---|---Rest-(clap your hands)----------|
E|-1/3-3-3---5------|-----------------------------------|

G|---------------|----------------------|---------------------|
D|-----------5/--|----------------------|---------------------|
A|--3-3----5-----|----------------------|---------------------|
E|---3-3h5-------|-5---5--5--55-5--3--5-|5---5--5--55-5--3--5-|

G|----------------------------------|
D|-----15---------------------------|
A|---------------8----10-10-10-10---|
E|-3/-------------------------------|

Finish w/ Chorus and improvise!

| /  slide up
| \  slide down
| h  hammer-on
| p  pull-off
| ~  vibrato
| +  harmonic
| x  Mute note
Suggest correction
Creating personal tab
Creating personal tab
You can edit any tab online and save it as your Personal.

You can edit, replace or remove any tab part or add personal notes – all changes will be seen only by you.

Personal tabs can be accessed anytime from any device, even offline.
Learn more »
comments
print report bad tab
guest
You may want to rate the tab now too:
select rating
Wanna post a correction for this tab? Suggest correction