Oops, an error
Loading. Please wait.

Wait In Line tab

94 views 3 this week
no commentswrite comment
1 2 3 4 5
3 more votes to show rating
add to favorites
×
Save as Personal and add changes to this tab that will be seen only by you. Learn more ›
×
You can save this tab as Personal to edit and correct it or add notes. All changes will be seen only by you. Learn more »
launch autoscroll
font size
0
reset
how to read this tab
guitar tuner
edit
Autoscroll
slow
fast
+/-
esc
set tempo
stop
[Intro] 

(Guitar 1)

e|---------------------------------------------------------------------------|
B|---------------------------------------------------------------------------|
G|---7-7-5--8-8-7-7----7-7-5--8-8-7-7----7-7-5--8-8-7-7----12-13--8-10-------|
D|---------------------------------------------------------------------------|
A|---------------------------------------------------------------------------|
E|---------------------------------------------------------------------------|

(Guitar 2)

e|---------------------------------------------------------------------------|
B|---------------------------------------------------------------------------|
G|---------------------------------------------------------------------------|
D|---------------------------------------------------------------------------|
A|---------------------------------------------------------------------------|
E|---------------------------------------------------------------------------|

(Guitar 1)    

e|---------------------------------------------------------------------------|
B|---------------------------------------------------------------------------|
G|---7-7-5--8-8-7-7----7-7-5--8-8-7-7----7-7-5--8-8-7-7----12-13--8-10-------|
D|---------------------------------------------------------------------------|
A|---------------------------------------------------------------------------|
E|---------------------------------------------------------------------------|

(Guitar 2)

e|---------------------------------------------------------------------------|
B|---------------------------------------------------------------------------|
G|---------------------------------------------------------------------------|
D|---------------------------------------------------------------------------|
A|---------------------------------------------------------------------------|
E|---------------------------------------------------------------------------|

(Guitar 1)    

e|---------------------------------------------------------------------------|
B|---------------------------------------------------------------------------|
G|---7-7-5--8-8-7-7----7-7-5--8-8-7-7----7-7-5--8-8-7-7----12-13--8-10-------|
D|---------------------------------------------------------------------------|
A|---------------------------------------------------------------------------|
E|---------------------------------------------------------------------------|

(Guitar 2)

e|---------------------------------------------------------------------------|
B|---------------------------------------------------------------------------|
G|---------------------------------------------------------------------------|
D|---------------------------------------------------------------------------|
A|---------------------------------------------------------------------------|
E|---------------------------------------------------------------------------|

(Guitar 1)    

e|---------------------------------------------------------------------------|
B|---------------------------------------------------------------------------|
G|---7-7-5--8-8-7-7----7-7-5--8-8-7-7----7-7-5--8-8-7-7----12-13--8-10-------|
D|---------------------------------------------------------------------------|
A|---------------------------------------------------------------------------|
E|---------------------------------------------------------------------------|

(Guitar 2)

e|---------------------------------------------------------------------------|
B|---------------------------------------------------------------------------|
G|---------------------------------------------------------------------------|
D|---0------x-x-x-----0-------x-x-x-----0------x-x-x-------------------------|
A|---0------x-x-x-----0-------x-x-x-----0------x-x-x-------------------------|
E|---0------x-x-x-----0-------x-x-x-----0------x-x-x-------------------------|


[Intro 2 and chorus]

e|---------------------------------------------------------------------------|
B|---------------------------------------------------------------------------|
G|-----------------------------------7-7-7-7--10-10-10-10--------------------|
D|---------------------5-------------x-x-x-x--x--x--x--x---------------------|
A|-1-0---0-0--5h6p5-0--3-0-1-0--0-0--5-5-5-5--8--8--8--8---------------------|
E|-1-0---0-0---------------1-0--0-0------------------------------------------|

e|---------------------------------------------------------------------------|
B|---------------------------------------------------------------------------|
G|----------------------------------10-10-10-10-12-12-12-12------------------|
D|----------------------------------x-x-x-x--x--x--x--x--x-------------------|
A|-1-0---0-0--5h6p5---1-0-5-0--0-0--8--8--8--8--10-10-10-10------------------|
E|-1-0---0-0--------0-1-0-5-0--0-0-------------------------------------------|

e|---------------------------------------------------------------------------|
B|---------------------------------------------------------------------------|
G|-----------------------------------7-7-7-7--10-10-10-10--------------------|
D|---------------------5-------------x-x-x-x--x--x--x--x---------------------|
A|-1-0---0-0--4h5p4-0--3-0-1-0--0-0--5-5-5-5--8--8--8--8---------------------|
E|-1-0---0-0---------------1-0--0-0------------------------------------------|

e|---------------------------------------------------------------------------|
B|---------------------------------------------------------------------------|
G|----------------------------------10-10-10-10-12-12-12-12------------------|
D|----------------------------------x-x-x-x--x--x--x--x--x-------------------|
A|-1-0---0-0--4h5p4---1-0-5-0--0-0--8--8--8--8--10-10-10-10------------------|
E|-1-0---0-0--------0-1-0-5-0--0-0-------------------------------------------|


[Verse]

(Guitar 1) 
  
e|---------------------------------------------------------------------------|
B|---------------------------------------------------------------------------|
G|---7-7-5--8-8-7-7----7-7-5--8-8-7-7----7-7-5--8-8-7-7----12-13--8-10-------|
D|---------------------------------------------------------------------------|
A|---------------------------------------------------------------------------|
E|---------------------------------------------------------------------------|

(Guitar 2)

e|---------------------------------------------------------------------------|
B|---------------------------------------------------------------------------|
G|---------------------------------------------------------------------------|
D|---------------------------------------------------------------------------|
A|---------------------------------------------------------------------------|
E|---------------------------------------------------------------------------|

(Guitar 1)

e|---------------------------------------------------------------------------|
B|---------------------------------------------------------------------------|
G|---7-7-5--8-8-7-7----7-7-5--8-8-7-7----7-7-5--8-8-7-7----12-13--8-10-------|
D|---------------------------------------------------------------------------|
A|---------------------------------------------------------------------------|
E|---------------------------------------------------------------------------|

(Guitar 2)

e|---------------------------------------------------------------------------|
B|---------------------------------------------------------------------------|
G|---------------------------------------------------------------------------|
D|---------------------------------------------------------------------------|
A|---------------------------------------------------------------------------|
E|---------------------------------------------------------------------------|

(Guitar 1)

e|---------------------------------------------------------------------------|
B|---------------------------------------------------------------------------|
G|---7-7-5--8-8-7-7----7-7-5--8-8-7-7----7-7-5--8-8-7-7----12-13--8-10-------|
D|---------------------------------------------------------------------------|
A|---------------------------------------------------------------------------|
E|---------------------------------------------------------------------------|

(Guitar 2)

e|---------------------------------------------------------------------------|
B|---------------------------------------------------------------------------|
G|---------------------------------------------------------------------------|
D|---0------x-x-x-----0-------x-x-x-----0------x-x-x-------5~----------------|
A|---0------x-x-x-----0-------x-x-x-----0------x-x-x-------3~----------------|
E|---0------x-x-x-----0-------x-x-x-----0------x-x-x-------------------------|

(Guitar 1)

e|---------------------------------------------------------------------------|
B|---------------------------------------------------------------------------|
G|---7-7-5--8-8-7-7----7-7-5--8-8-7-7----7-7-5--8-8-7-7----12-13--8-10-------|
D|---------------------------------------------------------------------------|
A|---------------------------------------------------------------------------|
E|---------------------------------------------------------------------------|

(Guitar 2)

e|---------------------------------------------------------------------------|
B|---------------------------------------------------------------------------|
G|---------------------------------------------------------------------------|
D|---0------x-x-x-----0-------x-x-x-----0------x-x-x-------------------------|
A|---0------x-x-x-----0-------x-x-x-----0------x-x-x-------------------------|
E|---0------x-x-x-----0-------x-x-x-----0------x-x-x-------------------------|


[Post-chorus]

e|---------------------------------------------------------------------------|
B|---------------------------------------------------------------------------|
G|---------------------------------------------------------------------------|
D|-1----------------------1--------------------------------------------------|
A|-1--0-0--5h6p5--3h5p3---1--0-0---5h6p5--8h10p8-----------------------------|
E|-1--0-0-----------------1--0-0---------------------------------------------|X4
      

[Bridge]
      
e|---------------------------------------------------------------------------|
B|---------------------------------------------------------------------------|
G|---------------------------------------------------------------------------|
D|--10--0--0--0--0~---10--0--0--0--0~--7--10--13-----------------------------|
A|--10--0--0--0--0~---10--0--0--0--0~--7--10--13-----------------------------|
E|--10--0--0--0--0~---10--0--0--0--0~--7--10--13-----------------------------|X4


[Outro]

e|---------------------------------------------------------------------------|
B|---------------------------------------------------------------------------|
G|---------------------------------------------------------------------------|
D|-1-------------1---------------1-------------1--x--x--x--------------------|
A|-1--0-0--0-0---1--0-0--0-0-----1--0-0--0-0---1--x--x--x--------------------|
E|-1--0-0--0-0---1--0-0--0-0-----1--0-0--0-0---1--x--x--x--------------------|X3

e|---------------------------------------------------------------------------|
B|---------------------------------------------------------------------------|
G|---------------------------------------------------------------------------|
D|-1-------------1---------------1-------------x--x--x--x--------------------|
A|-1--0-0--0-0---1--0-0--0-0-----1--0-0--0-0---x--x--x--x--------------------|
E|-1--0-0--0-0---1--0-0--0-0-----1--0-0--0-0---x--x--x--x--------------------|X3



************************************
| x   Dead note
| h   Hammer-on
| p   Pull-off
************************************

            
            
Suggest correction
Creating personal tab
Creating personal tab
You can edit any tab online and save it as your Personal.

You can edit, replace or remove any tab part or add personal notes – all changes will be seen only by you.

Personal tabs can be accessed anytime from any device, even offline.
Learn more »
Give kudos to tab author, rate the tab!
1 2 3 4 5
comments
print report bad tab
guest
You may want to rate the tab now too:
select rating
Wanna post a correction for this tab? Suggest correction