Oops, an error
Loading. Please wait.

Bleeding Acoustic Tab

version 2
version 2
11,109 views 1 this week
no commentswrite comment
1 2 3 4 5
not so good
x 3
add to favorites
launch autoscroll
font size
0
reset
how to read this tab
guitar tuner
Tab Pro tools
  • play this tab
  • loop segment
  • change instrument
  • show fretboard
  • metronome
×
Best way to learn
"Bleeding Acoustic"
Autoscroll
slow
fast
+/-
esc
set tempo
stop
Contributor
Difficulty
Tuning
intermediate
C G C F A D
i didn't see a tab i liked for the song so i decided to do it myself.
i did this tab by ear and i found it really simple.im only tabing first guitar which i 
is Zoltan.P.S remember un-plugged means acoustic,even though they are played allot alike 
a bit different

xxxxxxxxxxxxxxxxxxxxxxxxxxxxxxxxxxxxxxxxxxxxxxxxxxxxxxxxxxxxxxxxxxxxxxxxxxxxxx

the tuning(i think) is Drop C (C G C F A D)

xxxxxxxxxxxxxxxxxxxxxxxxxxxxxxxxxxxxxxxxxxxxxxxxxxxxxxxxxxxxxxxxxxxxxxxxxxxxxx
PM me for correction's

enjoy!!!!!


XXXXX
Intro (repeat 4 times)
XXXXX

C|----------------------------------------------|
G|----------------------------------------------|
C|------11-----11-----11----11--12--11----------|
F|---9-9----9-9---9-9----9-9--------------------|
A|----------------------------------------------|
D|----------------------------------------------|

C|----------------------------------------------|
G|----------------------------------------------|
C|------9-----9----9-----9--10--9---------------|
F|--7-7--7-7---7-7---7-7------------------------|
A|----------------------------------------------|
D|----------------------------------------------|

C|----------------------------------------------|
G|----------------------------------------------|
C|------7-----7----7-----7---8---7--------------|
F|--5-5--5-5---5-5---5-5------------------------|
A|----------------------------------------------|
D|----------------------------------------------|

C|----------------------------------------------|
G|----------------------------------------------|
C|------5-----5-----5-----5--6--5---------------|
F|--3-3---3-3---3-3---3-3-----------------------|
A|----------------------------------------------|
D|----------------------------------------------|


XXXXXX
verse
XXXXXX

C|--------------------------------------------------------------------------|
G|--------------------------------------------------------------------------|
C|-----------------------------10--10--12-----------------------------12~\--|
F|--10h12--12-12--12-12-12--12------------10h12--12-12--12-12-12--12--------|
A|--------------------------------------------------------------------------|
D|--------------------------------------------------------------------------|

C|---------------------------------------------------------------------------|
G|---------------------------------------------------------------------------|
C|--7-9-10~--10~-12-14--14h15p14--12--10\9~---10--12-10-9--10p9--------------|
F|---------------------------------------------------------------10----------|
A|---------------------------------------------------------------------------|
D|---------------------------------------------------------------------------|

XXXXX
Chorus
XXXXXX

C|--------------------------------------------| X2
G|--------------------------------------------|
C|--------------------------------------------|
F|--0--0-xx-x-0--0-xx-x-0--0-xx-x-3--3-3\\5-5-|
A|--0--0-xx-x-0--0-xx-x-0--0-xx-x-3--3-3\\5-5-|
D|--0--0-xx-x-0--0-xx-x-0--0-xx-x-3--3-3\\5-5-|

XXXXXXXXX
2nd verse
XXXXXXXXX

C|--------------------------------------------------------------------|
G|--------------------------------------------------------------------|
C|-------14------15-------14-------12------14------15------14------12-|
F|--12-12---12-12---12-12-----12-12---12-12---12-12---12-12---12-12---|
A|--------------------------------------------------------------------|
D|--------------------------------------------------------------------|

C|---------------------------------------------------------------------------|
G|---------------------------------------------------------------------------|
C|-----10-----10----10----10---10\\-------12------12------12------12------12-|
F|--8-8---8-8---8-8---8-8---8-8--\\--10-10---10-10---10-10---10-10---10-10---|
A|---------------------------------------------------------------------------|
D|---------------------------------------------------------------------------|

XXXXXXXXXXX
ending
XXXXXXXXXXX

C|--------------------------------------------| X2
G|--------------------------------------------|
C|--------------------------------------------|
F|--0--0-xx-x-0--0-xx-x-0--0-xx-x-3--3-3\\5-5-|
A|--0--0-xx-x-0--0-xx-x-0--0-xx-x-3--3-3\\5-5-|
D|--0--0-xx-x-0--0-xx-x-0--0-xx-x-3--3-3\\5-5-|


C|-------------------0----------------------3-3-3-|
G|-------3--------------1--------6----------3-3-3-|
C|-----------2--2~~-------2----------5--5~~-5-5-5-|
F|--0~~---------2~~----------3~~--------5~~-5-5-5-|
A|--0~~---------0~~----------3~~--------3~~-3-3-3-|
D|--0~~----------------------3~~------------------|


C|--------------------------------------------| X2
G|--------------------------------------------|
C|--------------------------------------------|
F|--0--0-xx-x-0--0-xx-x-0--0-xx-x-3--3-3\\5-5-|
A|--0--0-xx-x-0--0-xx-x-0--0-xx-x-3--3-3\\5-5-|
D|--0--0-xx-x-0--0-xx-x-0--0-xx-x-3--3-3\\5-5-|


C|----------------------------------------------|
G|----------------------------------------------|
C|------11-----11-----11----11--12--11----------|
F|---9-9----9-9---9-9----9-9--------------------|
A|----------------------------------------------|
D|----------------------------------------------|

C|----------------------------------------------|
G|----------------------------------------------|
C|------9-----9----9-----9--10--9---------------|
F|--7-7--7-7---7-7---7-7------------------------|
A|----------------------------------------------|
D|----------------------------------------------|

C|----------------------------------------------|
G|----------------------------------------------|
C|------7-----7----7-----7---8---7--------------|
F|--5-5--5-5---5-5---5-5------------------------|
A|----------------------------------------------|
D|----------------------------------------------|

C|----------------------------------------------|
G|----------------------------------------------|
C|------5-----5-----5-----5--6--5---------------|
F|--3-3---3-3---3-3---3-3-----------------------|
A|----------------------------------------------|
D|----------------------------------------------|
comments
We did not receive enough feedback on this tab! Please rate:
print report bad tab
1 2 3 4 5
I want to post or [tab]
guest
You may want to rate the tab now too:
select rating
Please do not post tabs as comments. Select "correction" instead!