Oops, an error
Loading. Please wait.

Bleeding Tab

version 3
41,683 views 12 this week
9 commentsread comments
1 2 3 4 5
excellent!
x 10
add to favorites
launch autoscroll
font size
0
reset
how to read this tab
guitar tuner
Tab Pro tools
  • play this tab
  • loop segment
  • change instrument
  • show fretboard
  • metronome
×
Best way to learn
"Bleeding"
Autoscroll
slow
fast
+/-
esc
set tempo
stop
Contributor
Tuning
B E A D F# B
Song:The Bleeding (Acoustic)
Band:Five Finger Death Punch
Tabbed by:dreads23
Tuning:B tuning (B-E-A-D-F#-B)

This is my first tab, I'm Not sure if the chords or struming is right or not

Intro

B |------8------9--------8-------6------6h8------|
F#|--/6-----6-6------6-6-----6-6-----6-6---------|
D |----------------------------------------------|
A |----------------------------------------------|
E |----------------------------------------------|
B |----------------------------------------------|x2

B |------4------4------4------4------4-----------|
F#|--\2-----2-2----2-2----2-2----2-2-------------|
D |----------------------------------------------|
A |----------------------------------------------|
E |----------------------------------------------|
B |----------------------------------------------|

B |------6------6------6------6------6-----------|
F#|--/4-----4-4----4-4----4-4----4-4-------------|
D |----------------------------------------------|
A |----------------------------------------------|
E |----------------------------------------------|
B |----------------------------------------------|

B |------8------9--------8-------6------6h8------|
F#|--/6-----6-6------6-6-----6-6-----6-6---------|
D |----------------------------------------------|
A |----------------------------------------------|
E |----------------------------------------------|
B |----------------------------------------------|x2

B |------4------4------4------4------4-----------|
F#|--\2-----2-2----2-2----2-2----2-2-------------|
D |----------------------------------------------|
A |----------------------------------------------|
E |----------------------------------------------|
B |----------------------------------------------|

B |------6------6------6------6------6-----------|
F#|--/4-----4-4----4-4----4-4----4-4-------------|
D |----------------------------------------------|
A |----------------------------------------------|
E |----------------------------------------------|
B |----------------------------------------------|

Verse

B |------8------9--------8-------6------6h8------|
F#|--/6-----6-6------6-6-----6-6-----6-6---------|
D |----------------------------------------------|
A |----------------------------------------------|
E |----------------------------------------------|
B |----------------------------------------------|x2
  I remember when all the games began

B |------4------4------4------4------4-----------|
F#|--\2-----2-2----2-2----2-2----2-2-------------|
D |----------------------------------------------|
A |----------------------------------------------|
E |----------------------------------------------|
B |----------------------------------------------|
  Remember every little lie

B |------6------6------6------6------6-----------|
F#|--/4-----4-4----4-4----4-4----4-4-------------|
D |----------------------------------------------|
A |----------------------------------------------|
E |----------------------------------------------|
B |----------------------------------------------|
  and every last goodbye

B |------8------9--------8-------6------6h8------|
F#|--/6-----6-6------6-6-----6-6-----6-6---------|
D |----------------------------------------------|
A |----------------------------------------------|
E |----------------------------------------------|
B |----------------------------------------------|x2
  Promises you broke, words you choked on

B |------4------4------4------4------4-----------|
F#|--\2-----2-2----2-2----2-2----2-2-------------|
D |----------------------------------------------|
A |----------------------------------------------|
E |----------------------------------------------|
B |----------------------------------------------|
  and I never walked away,

B |------6------6------6------6------6-----------|
F#|--/4-----4-4----4-4----4-4----4-4-------------|
D |----------------------------------------------|
A |----------------------------------------------|
E |----------------------------------------------|
B |----------------------------------------------|
  it's still a mystery to me

Pre-Chorus

B |----------------------------------------------|
F#|----------------------------------------------|
D |----------------------------------------------|
A |---11-11-11-11-11-11-11-11-11-11-11-11-11-11--|
E |---11-11-11-11-11-11-11-11-11-11-11-11-11-11--|
B |---8--8--8--8--8--8--8--8--8--8--8--8--8--8---|
      d  d  d  u  u  d  d  u  d  d  u  d  u  d
  Well I'm so empty

B |----------------------------------------------|
F#|----------------------------------------------|
D |----------------------------------------------|
A |---7-7-7-7-7-7-7-7-7--------------------------|
E |---5-5-5-5-5-7-7-7-7--------------------------|
B |--\5-5-5-5-5-5-5-5-5--------------------------|
      d d d u u d d u d
  I'm better off without you 

B |----------------------------------------------|
F#|----------------------------------------------|
D |----------------------------------------------|
A |---9-9-9-9-9-9-9-9-9-9------------------------|
E |---9-9-9-9-9-9-9-9-9-9------------------------|
B |--\7-7-7-7-7-7-7-7-7-7------------------------|
      d d d u u d d u d d 
  and you're better off without me

B |----------------------------------------------|
F#|----------------------------------------------|
D |----------------------------------------------|
A |---11-11-11-11-11-11-11-11-11-11-11-11-11-11--|
E |---11-11-11-11-11-11-11-11-11-11-11-11-11-11--|
B |---8--8--8--8--8--8--8--8--8--8--8--8--8--8---|
      d  d  d  u  u  d  d  u  d  d  u  d  u  d
  Well you're so unclean
  
B |----------------------------------------------|
F#|----------------------------------------------|
D |----------------------------------------------|
A |---7-7-7-7-7-7-7-7-7--------------------------|
E |---5-5-5-5-5-7-7-7-7--------------------------|
B |--\5-5-5-5-5-5-5-5-5--------------------------|
      d d d u u d d u d
  I'm better off without you 

B |----------------------------------------------|
F#|----------------------------------------------|
D |----------------------------------------------|
A |---9-9-9-9-9-9-9-9-9-9-9----------------------|
E |---9-9-9-9-9-9-9-9-9-9-9----------------------|
B |--\7-7-7-7-7-7-7-7-7-7-7----------------------|
      d d d u u d d u d u d
  and you're better off without me

Chorus

B |----------------------------------------------|
F#|----------------------------------------------|
D |----------------------------------------------|
A |---3--3--x-x-x--3--3--x-x-x--3-3--x-x-x-------|
E |---3--3--x-x-x--3--3--x-x-x--3-3--x-x-x-------|
B |---1--1--x-x-x--1--1--x-x-x--1-1--x-x-x-------|
      d  d  d u u  d  d  d u u  d d  d u u
  The lying, the bleeding, the screaming

B |----------------------------------------------|
F#|----------------------------------------------|
D |----------------------------------------------|
A |---6-6-6---8-8-8------------------------------|
E |---6-6-6---8-8-8------------------------------|
B |---4-4-4--\6-6-6------------------------------|
      d u d   d u d 
  Was tearing me apart

B |----------------------------------------------|
F#|----------------------------------------------|
D |----------------------------------------------|
A |---3--3--x-x-x--3--3--x-x-x--3-3--x-x-x-------|
E |---3--3--x-x-x--3--3--x-x-x--3-3--x-x-x-------|
B |---1--1--x-x-x--1--1--x-x-x--1-1--x-x-x-------|
      d  d  d u u  d  d  d u u  d d  d u u
  The hatred, deceiving, the beatings

B |----------------------------------------------|
F#|----------------------------------------------|
D |----------------------------------------------|
A |---6-6-6---8-8-8------------------------------|
E |---6-6-6---8-8-8------------------------------|
B |---4-4-4--\6-6-6------------------------------|
      d u d   d u d 
  it's over

Verse 2

B |------8------9--------8-------6------6h8------|
F#|--/6-----6-6------6-6-----6-6-----6-6---------|
D |----------------------------------------------|
A |----------------------------------------------|
E |----------------------------------------------|
B |----------------------------------------------|x2
  Paint the mirrors black to forget you  

B |------4------4------4------4------4-----------|
F#|--\2-----2-2----2-2----2-2----2-2-------------|
D |----------------------------------------------|
A |----------------------------------------------|
E |----------------------------------------------|
B |----------------------------------------------|
  I still picture your face 

B |------6------6------6------6------6-----------|
F#|--/4-----4-4----4-4----4-4----4-4-------------|
D |----------------------------------------------|
A |----------------------------------------------|
E |----------------------------------------------|
B |----------------------------------------------|
  and the way you used to taste

B |------8------9--------8-------6------6h8------|
F#|--/6-----6-6------6-6-----6-6-----6-6---------|
D |----------------------------------------------|
A |----------------------------------------------|
E |----------------------------------------------|
B |----------------------------------------------|x2
  Roses in a glass, dead and wilted

B |------4------4------4------4------4-----------|
F#|--\2-----2-2----2-2----2-2----2-2-------------|
D |----------------------------------------------|
A |----------------------------------------------|
E |----------------------------------------------|
B |----------------------------------------------|
  To you this all was nothing

B |------6------6------6------6------6-----------|
F#|--/4-----4-4----4-4----4-4----4-4-------------|
D |----------------------------------------------|
A |----------------------------------------------|
E |----------------------------------------------|
B |----------------------------------------------|
  Everything to you is nothing

Pre-Chorus

B |----------------------------------------------|
F#|----------------------------------------------|
D |----------------------------------------------|
A |---11-11-11-11-11-11-11-11-11-11-11-11-11-11--|
E |---11-11-11-11-11-11-11-11-11-11-11-11-11-11--|
B |---8--8--8--8--8--8--8--8--8--8--8--8--8--8---|
      d  d  d  u  u  d  d  u  d  d  u  d  u  d
  Well you're so filthy

B |----------------------------------------------|
F#|----------------------------------------------|
D |----------------------------------------------|
A |---7-7-7-7-7-7-7-7-7--------------------------|
E |---5-5-5-5-5-7-7-7-7--------------------------|
B |--\5-5-5-5-5-5-5-5-5--------------------------|
      d d d u u d d u d
  I'm better off without you 

B |----------------------------------------------|
F#|----------------------------------------------|
D |----------------------------------------------|
A |---9-9-9-9-9-9-9-9-9-9------------------------|
E |---9-9-9-9-9-9-9-9-9-9------------------------|
B |--\7-7-7-7-7-7-7-7-7-7------------------------|
      d d d u u d d u d d 
  and you're better off without me

B |----------------------------------------------|
F#|----------------------------------------------|
D |----------------------------------------------|
A |---11-11-11-11-11-11-11-11-11-11-11-11-11-11--|
E |---11-11-11-11-11-11-11-11-11-11-11-11-11-11--|
B |---8--8--8--8--8--8--8--8--8--8--8--8--8--8---|
      d  d  d  u  u  d  d  u  d  d  u  d  u  d
  Well I'm so ugly

B |----------------------------------------------|
F#|----------------------------------------------|
D |----------------------------------------------|
A |---7-7-7-7-7-7-7-7-7--------------------------|
E |---5-5-5-5-5-7-7-7-7--------------------------|
B |--\5-5-5-5-5-5-5-5-5--------------------------|
      d d d u u d d u d
  You're better off without me and I'm better off alone

B |----------------------------------------------|
F#|----------------------------------------------|
D |----------------------------------------------|
A |---9-9-9-9-9-9-9-9-9-9-9----------------------|
E |---9-9-9-9-9-9-9-9-9-9-9----------------------|
B |--\7-7-7-7-7-7-7-7-7-7-7----------------------|
      d d d u u d d u d u d
  and I'm better off alone

Chorus

B |----------------------------------------------|
F#|----------------------------------------------|
D |----------------------------------------------|
A |---3--3--x-x-x--3--3--x-x-x--3-3--x-x-x-------|
E |---3--3--x-x-x--3--3--x-x-x--3-3--x-x-x-------|
B |---1--1--x-x-x--1--1--x-x-x--1-1--x-x-x-------|
      d  d  d u u  d  d  d u u  d d  d u u
  The lying, the bleeding, the screaming

B |----------------------------------------------|
F#|----------------------------------------------|
D |----------------------------------------------|
A |---6-6-6---8-8-8------------------------------|
E |---6-6-6---8-8-8------------------------------|
B |---4-4-4--\6-6-6------------------------------|
      d u d   d u d 
  Was tearing me apart

B |----------------------------------------------|
F#|----------------------------------------------|
D |----------------------------------------------|
A |---3--3--x-x-x--3--3--x-x-x--3-3--x-x-x-------|
E |---3--3--x-x-x--3--3--x-x-x--3-3--x-x-x-------|
B |---1--1--x-x-x--1--1--x-x-x--1-1--x-x-x-------|
      d  d  d u u  d  d  d u u  d d  d u u
  The hatred, the beatings, disaster

B |----------------------------------------------|
F#|----------------------------------------------|
D |----------------------------------------------|
A |---6-6-6---8-8-8------------------------------|
E |---6-6-6---8-8-8------------------------------|
B |---4-4-4--\6-6-6------------------------------|
      d u d   d u d 
  it's over

B |----------------------------------------------|
F#|----------------------------------------------|
D |----------------------------------------------|
A |---5-5-5-5-5-5-5-5-5-5-5-5-5-5-5-5-5-5-5-5-5--|
E |---5-5-5-5-5-5-5-5-5-5-5-5-5-5-5-5-5-5-5-5-5--|
B |---3-3-3-3-3-3-3-3-3-3-3-3-3-3-3-3-3-3-3-3-3--|
      d d d u d d u d d u d u d d u d d u d u d
  
B |----------------------------------------------|
F#|----------------------------------------------|
D |----------------------------------------------|
A |---6-6-6-6-6-6-6-6-6-6--8-8-8-8-8-8-8-8-8-8---|
E |---6-6-6-6-6-6-6-6-6-6--8-8-8-8-8-8-8-8-8-8---|
B |---4-4-4-4-4-4-4-4-4-4--6-6-6-6-6-6-6-6-6-6---|
      d d u u d d u d u d  d d u u d d u d u d
  As wicked as you are, you're beautiful to me

B |----------------------------------------------|
F#|----------------------------------------------|
D |----------------------------------------------|
A |---5-5-5-5-5-5-5-5-5-5-5-5-5-5-5-5-5-5-5-5-5--|
E |---5-5-5-5-5-5-5-5-5-5-5-5-5-5-5-5-5-5-5-5-5--|
B |---3-3-3-3-3-3-3-3-3-3-3-3-3-3-3-3-3-3-3-3-3--|
      d d d u d d u d d u d u d d u d d u d u d

B |----------------------------------------------|
F#|----------------------------------------------|
D |----------------------------------------------|
A |---6-6-6-6-6-6-6-6-6-6--8-8-8-8-8-8-8-8-8-8---|
E |---6-6-6-6-6-6-6-6-6-6--8-8-8-8-8-8-8-8-8-8---|
B |---4-4-4-4-4-4-4-4-4-4--6-6-6-6-6-6-6-6-6-6---|
      d d u u d d u d u d  d d u u d d u d u d
  You're the darkest burning star, you're my perfect disease

Chorus

B |----------------------------------------------|
F#|----------------------------------------------|
D |----------------------------------------------|
A |---3--3--x-x-x--3--3--x-x-x--3-3--x-x-x-------|
E |---3--3--x-x-x--3--3--x-x-x--3-3--x-x-x-------|
B |---1--1--x-x-x--1--1--x-x-x--1-1--x-x-x-------|
      d  d  d u u  d  d  d u u  d d  d u u
  The lying, the bleeding, the screaming

B |----------------------------------------------|
F#|----------------------------------------------|
D |----------------------------------------------|
A |---6-6-6---8-8-8------------------------------|
E |---6-6-6---8-8-8------------------------------|
B |---4-4-4--\6-6-6------------------------------|
      d u d   d u d 
  Was tearing me apart

B |----------------------------------------------|
F#|----------------------------------------------|
D |----------------------------------------------|
A |---3--3--x-x-x--3--3--x-x-x--3-3--x-x-x-------|
E |---3--3--x-x-x--3--3--x-x-x--3-3--x-x-x-------|
B |---1--1--x-x-x--1--1--x-x-x--1-1--x-x-x-------|
      d  d  d u u  d  d  d u u  d d  d u u

  The hatred, the beatings, disaster

B |----------------------------------------------|
F#|----------------------------------------------|
D |----------------------------------------------|
A |---6-6-6---8-8-8------------------------------|
E |---6-6-6---8-8-8------------------------------|
B |---4-4-4--\6-6-6------------------------------|
      d u d   d u d 
  it's over

B |----------------------------------------------|
F#|----------------------------------------------|
D |----------------------------------------------|
A |---3--3--x-x-x--3--3--x-x-x--3-3--x-x-x-------|
E |---3--3--x-x-x--3--3--x-x-x--3-3--x-x-x-------|
B |---1--1--x-x-x--1--1--x-x-x--1-1--x-x-x-------|
      d  d  d u u  d  d  d u u  d d  d u u
  The lying, the bleeding, the screaming

B |----------------------------------------------|
F#|----------------------------------------------|
D |----------------------------------------------|
A |---6-6-6---8-8-8------------------------------|
E |---6-6-6---8-8-8------------------------------|
B |---4-4-4--\6-6-6------------------------------|
      d u d   d u d 
  Was tearing me apart

B |----------------------------------------------|
F#|----------------------------------------------|
D |----------------------------------------------|
A |---3--3--x-x-x--3--3--x-x-x--3-3--x-x-x-------|
E |---3--3--x-x-x--3--3--x-x-x--3-3--x-x-x-------|
B |---1--1--x-x-x--1--1--x-x-x--1-1--x-x-x-------|
      d  d  d u u  d  d  d u u  d d  d u u
  The hatred, the deceiving, disaster

B |----------------------------------------------|
F#|----------------------------------------------|
D |----------------------------------------------|
A |---6-6-6---8-8-8------------------------------|
E |---6-6-6---8-8-8------------------------------|
B |---4-4-4--\6-6-6------------------------------|
      d u d   d u d 
  it's over

B |------8------9--------8-------6------6h8------|
F#|--/6-----6-6------6-6-----6-6-----6-6---------|
D |----------------------------------------------|
A |----------------------------------------------|
E |----------------------------------------------|
B |----------------------------------------------|x2
  now

B |------4------4------4------4------4-----------|
F#|--\2-----2-2----2-2----2-2----2-2-------------|
D |----------------------------------------------|
A |----------------------------------------------|
E |----------------------------------------------|
B |----------------------------------------------|
  it's over


B |------6------6------6------6------6-----------|
F#|--/4-----4-4----4-4----4-4----4-4-------------|
D |----------------------------------------------|
A |----------------------------------------------|
E |----------------------------------------------|
B |----------------------------------------------|
  over

  now
comments
print report bad tab
9 comments total. Showing first comments.
0 reply
DevilsOwn666 wrote on August 7 2008, 02:18 am

awesome tab

0 reply
5fdp wrote on March 13 2009, 07:08 am

at least you got the tuning right havent checked the tab though

0 reply
Solace666 wrote on February 26 2010, 11:29 pm

I think the basic strumming pattern is down down down up and down up down with some changes on different parts, but i could be wrong

I want to post or [tab]
guest
You may want to rate the tab now too:
select rating
Please do not post tabs as comments. Select "correction" instead!